• Song:

    Lowpoint

  • Artist:

    Napalm Death

  • Album:

    Inside the Torn Apart

Lowpoint
Inside the torn apart
Tune down a step and a half

Something to notice in this song is that the intro is done by 2 guitars,
one plays the main riff and the other doubles power chords and adds some.
Instead of writing the same riff twice, the riff titled "intro" will only 
feature power chords.The power chords at the chorus' end need palm mute
when played for the 2nd time and a power chord (0)is played at the song's end
and before the "concessions riff".

Intro
-------------------------------------------------------
-------------------------------------------------------
-------------------------------------------------------
10-----------------------------------------------------
8--8-10-6-3----------------------------5-6-8-3---------
---6-8--4-1----------------------------3-4-6-1---------

Main
-------------------------------------------------------
-------------------------------------------------------
-------------------------------------------------------
-------------------------------------------10----------
---------568------568----------568---------8-8-10-6----
14001400 346-1400-346-14001400-346-14001400--6-8--4----
Chorus
--------- --------- --------- ----------------- ---------
--------- --------- --------- ----------------- ---------
--------- --------- --------- ----------------- ---------
101010999 121212888 --------- 12-12-12-13-13-13 ---------
8-8-8-777 101010666 888101010 10-10-10-11-11-11 10101088-
--------- --------- 6668-8-8- ----------------- 8-8-8-66-

Concessions...
-------------------------------- ----------- -------------
-------------------------------- ----------- -------------
-------------------------------- ----------- -------------
-------------------------------- ----------- ---333--333--
2-6-222-3-26222-5-777-2-6-222-3- --23332333- -2-1112-111--
0-4-000-1-04000-3/555-0-4-000-1- --01110111- -0----0------

Phase me out
------------------- ------------------------------------
------------------- ------------------------------------
------------------- ------------------------------------
------------------- ------------------------------------
8-77-44-888777-444- -3----------------------------------
6/55-22/666555/222- -1----------------------------------
Show more