• Song:

    The We Just Touched Awkwardly Song

  • Artist:

    Natalie Tran

"We Just Touched Awkwardly" By Natalie Tran of Community Channel


verse
G|---------------------------|
D|---------------------------|
A|-------------2~----3-3-3-3-|
E|-3~----5~------------------|


chorus 1
G|--------------------------------------------|
D|--------------------------------------------|
A|---------------2x--2x-2-5-2-3~--5~--7~--9~--|
E|-3x--3x-3-5-6-------------------------------|

G|---------------------------------------------------|
D|---------------------------------------------------|
A|---------------2x--2x-2-5-2-3~--5~-----------------|
E|-3x--3x-3-5-6-----------------------3x--3x--3x--3x-|


[repeat verse]


chorus 2
G|--------------------------------------------|
D|--------------------------------------------|
A|---------------2x--2x-2-5-2-3~--5~--7~--9~--|
E|-3x--3x-3-5-6-------------------------------|

G|--------------------------------------------|
D|--------------------------------------------|
A|---------------2x--2x-2-5-2-3~--5~--7~--9~--|
E|-3x--3x-3-5-6-------------------------------|


chorus 3
G|---------------------------------------------|
D|---------------------------------------------|
A|---------------4x--4x-4-7-4-5~--7~--9~--11~--|
E|-5x--5x-5-7-8--------------------------------|

G|---------------------------------------------------|
D|---------------------------------------------------|
A|---------------4x--4x-4-7-4-5~--7~-----------------|
E|-5x--5x-5-7-8-----------------------5x--5x--5x--5x-|



Done! Hope you enjoy the awkwardness~

tabbed by me ---> josephbuenviajejoseph@gmail.com
Show more