Negrita
bass fingerd

Sul pezzo prima dell'assolo di chitarra ho dei dubbi sulle note finali
Segnalate eventuali errori anche perchè non sono un esperto. Ciao Simone



      Q.     S S Q.     E     Q.     E  E  E  E  E   3x
G||------------------------|-------------------------||
D||*--4------4-2-----------|------------------2-----*||
A||*-------------4------4--|--2------2--2--4-----4--*||
E||------------------------|-------------------------||


  Q.     S S Q.     E     Q.     E  E  E  E  E   
-----------------------|------------------------|
--4------4-2-----------|---------------------2--|
-------------4------4--|--2------2--2--4--5-----|
-----------------------|------------------------|


    Q.     S S Q.     E     Q.     E  E  E  E  E   3x
|------------------------|-------------------------||
|*--4------4-4-2------2--|---------------2--2-----*||
|*-----------------------|--5------5--5--------5--*||
|------------------------|-------------------------||


  Q.     S S Q.     E     Q.     E  E  E  E  E   
-----------------------|------------------------|
--4------4-2-----------|---------------------2--|
-------------4------4--|--2------2--2--4--5-----|
-----------------------|------------------------|


    Q.     S S Q.     E     Q.     E  E  E  E  E     
|------------------------|-------------------------||
|*--4------4-4-2------2--|---------------2--2-----*||
|*-----------------------|--5------5--5--------5--*||
|------------------------|-------------------------||


   Q.     S S Q.     E     Q.     E  E  E  E  E     
------------------------|-------------------------||
*--4------4-2-----------|---------------------2--*||
*-------------4------4--|--2------2--2--4--5-----*||
------------------------|-------------------------||


  Q.     E  E  Q    E     Q.     E  E  E  Q     
-----------------------|---------------4-------|
---------7--7--7----7--|--0------7--5-----7----|
--5--------------------|-----------------------|
-----------------------|-----------------------|


  Q.     E  E  Q    E     H        S E.  E  E   
-----------------------|--6--------4-6---4--3--|
---------6--6--6----6--|-----------------------|
--4--------------------|-----------------------|
-----------------------|-----------------------|


  Q.     S S Q.     E     Q.     E  E  E  E  E   
-----------------------|------------------------|
--4------4-2-----------|------------------2-----|
-------------4------4--|--2------2--2--4-----4--|
-----------------------|------------------------|


  Q.     S S Q.     E     Q.     E  E  E  E  E   
-----------------------|------------------------|
--4------4-2-----------|---------------------2--|
-------------4------4--|--2------2--2--4--5-----|
-----------------------|------------------------|


    Q.     S S Q.     E     Q.     E  E  E  E  E   3x
|------------------------|-------------------------||
|*--4------4-4-2---------|---------------2--2-----*||
|*-----------------------|--5---------5--------5--*||
|------------------------|-------------------------||


  Q.     S S Q.     E     Q.     E  E  E  E  E   
-----------------------|------------------------|
--4------4-4-2------2--|---------------2--2-----|
-----------------------|--5---------5--------5--|
-----------------------|------------------------|


    Q.     S S Q.     E     Q.     E  E  E  E  E     
|------------------------|-------------------------||
|*--4------4-4-2------2--|---------------2--2-----*||
|*-----------------------|--5------5--5--------5--*||
|------------------------|-------------------------||


   Q.     S S Q.     E     Q.     E  E  E  E  E     
------------------------|-------------------------||
*--4------4-2-----------|---------------------2--*||
*-------------4------4--|--2------2--2--4--5-----*||
------------------------|-------------------------||


  Q.     E  E  Q    E     Q.     E  E  E  Q     
-----------------------|---------------4-------|
---------7--7--7----7--|--0------7--5-----7----|
--5--------------------|-----------------------|
-----------------------|-----------------------|


  Q.     E  E  Q    E     H        S E.  E  E   
-----------------------|--6--------4-6---4--3--|
---------6--6--6----6--|-----------------------|
--4--------------------|-----------------------|
-----------------------|-----------------------|


    Q.     S S Q.     E     Q.     E  E  E  E  E   4x
|------------------------|-------------------------||
|*--4------4-2-----------|---------------------2--*||
|*-------------4------4--|--2------2--2--4--5-----*||
|------------------------|-------------------------||


  Q.     E  E  Q    E     Q.     E  E  E  Q     
-----------------------|---------------4-------|
---------7--7--7----7--|--0------7--5-----7----|
--5--------------------|-----------------------|
-----------------------|-----------------------|


  Q.     E  E  Q    E     H        S E.  E  E   
-----------------------|--6--------4-6---4--3--|
---------6--6--6----6--|-----------------------|
--4--------------------|-----------------------|
-----------------------|-----------------------|


    Q.     S S Q.     E     Q.     E  E  E  E  E   6x
|------------------------|-------------------------||
|*--4------4-2-----------|---------------------2--*||
|*-------------4------4--|--2------2--2--4--5-----*||
|------------------------|-------------------------||




Duration Legend
---------------
W - whole
H - half
Q - quarter
E - 8th
S - 16th
T - 32nd
X - 64th
. - note dotted
|-n-|  - n-tuplets


Tablature Legend
----------------
L - tied note
x - dead note
g - grace note
(n) - ghost note
> - accentuded note
NH - natural harmonic
AH - artificial harmonic
TH - tapped harmonic
SH - semi harmonic
PH - pitch harmonic
h - hammer on
p - pull off
b - bend
br - bendRelease
pb - preBend
pbr - preBendRelease
brb - bendReleaseBend
\n/ - tremolo bar dip
\n - tremolo bar dive
-/n - tremolo bar Release up
/n\ - tremolo bar inverted dip
/n - tremolo bar return
-\n - tremolo bar Release down
S - shift slide
s - legato slide
/ -  slide into from below or out of upwards
\ -  slide into from above or out of downwards
~ - vibrato
W - wide vibrato
tr - trill
TP - tremolo picking
T - tapping
S - slap
P - pop
< - fade in
^ - brush up
v - brush down
Show more