• Song:

    Feeling Bad

  • Artist:

    Nerf Herder

  • Album:

    How To Meet Girls

Nerf Herder - Feeling Bad
Tabbed By: Daniel Taylor
EMail: danielt88@hotmail.com


Intro

G-------------------------------
D-------------------------------
A---3-3-----5-5-----------------
E-------------------------------


Verses

G--------------------------------------------------------------------
D--------------------------------------------------------------------
A-------------------5-5-5-5-5-5-5-5--2-2-2-2-2-2-2-2-3-3-3-3-3-3-3-3-
E--3-3-3-3-3-3-3-3---------------------------------------------------

Chorus

G-------------------------------
D-------------------------------
A--3-3-------5-5--2-2-2-2-------
E-------3-3---------------------
Show more