• Song:

    On The Brightside

  • Artist:

    Nevershoutnever

NeverShoutNever
On The Brightside   
(Tabbed by Xilant - Eli)

Submitted to Ultimate Guitar ONLY                              
                                           
Christofer Drew - Guitar And Vocals

This is my first tab.. and yes, I TABBED IT.
I tabbed this song due to the fact that all the other
On The Brightside tabs were way off, And I'm pretty sure
this is 95% correct.
If you submit this to another site give me credit.

Tuned 1/2 Step down. D# A# F# C# G# D#

Enjoy :]



       E  E  E  E  E  E  E  E     E  E  E  E  E  E  E  E   
D#||---------------------------|--------------------------|
A#||---------------------------|--------------------------|
F#||*-----2-----2-----2-----2--|-----1-----1-----1-----1--|
C#||*--------------------------|--------------------------|
G#||---0-----0-----0-----0-----|--------------------------|
D#||---------------------------|--0-----0-----0-----0-----|


  E  E  E  E  E  E  E  E     E  E  E  E  E  E  E  E   
--------------------------|--------------------------|
--------------------------|--------------------------|
-----3-----3-----3-----3--|-----2-----2-----1-----1--|
--------------------------|--------------------------|
--3-----3-----3-----3-----|--0-----0-----------------|
--------------------------|--------------4-----4-----|


  E  E  E  E  E  E  E  E     E  E  E  E  E  E  E  E   
--------------------------|--------------------------|
--------------------------|--------------------------|
-----2-----2-----2-----2--|-----1-----1-----1-----1--|
--------------------------|--------------------------|
--0-----0-----0-----0-----|--------------------------|
--------------------------|--0-----0-----0-----0-----|


  E  E  E  E  E  E  E  E     E  E  E  E  E  E  E  E   
--------------------------|--------------------------|
-----1-----1-----1-----1--|--------------------------|
--------------------------|-----2-----2-----0-----0--|
--------------------------|--------------------------|
--3-----3-----3-----3-----|--------------------------|
--------------------------|--1-----1-----3-----3-----|


  E  E  E  E  E  E  E  E     E  E  E  E  E  E  E  E   
--------------------------|--------------------------|
-----1-----1-----1-----1--|--------------------------|
--------------------------|-----2-----2-----2-----2--|
--------------------------|--------------------------|
--3-----3-----3-----3-----|--0-----0-----0-----0-----|
--------------------------|--------------------------|


  E  E  E  E  E  E  E  E     E  E  E  E  E  E  E  E   
--------------------------|--------------------------|
--------------------------|--------------------------|
-----2-----2-----2-----2--|-----0-----0-----0-----0--|
--------------------------|--------------------------|
--------------------------|--------------------------|
--1-----1-----1-----1-----|--3-----3-----3-----3-----|


  E  E  E  E  E  E  E  E     E  E  E  E  E  E  E  E   
--------------------------|--------------------------|
-----1-----1-----1-----1--|--------------------------|
--------------------------|-----2-----2-----2-----2--|
--------------------------|--------------------------|
--3-----3-----3-----3-----|--0-----0-----0-----0-----|
--------------------------|--------------------------|


  E  E  E  E  E  E  E  E     E  E  E  E  E  E  E  E   
--------------------------|--------------------------|
--------------------------|--------------------------|
-----2-----2-----2-----2--|-----0-----0-----0-----0--|
--------------------------|--------------------------|
--------------------------|--------------------------|
--1-----1-----1-----1-----|--3-----3-----3-----3-----|


  E  E  E  E  E  E  E  E     E  E  E  E  E  R  R  R   3x
--------------------------|---------------------------||
--------------------------|---------------------------||
-----2-----2-----2-----2--|-----2-----2--------------*||
--------------------------|--------------------------*||
--0-----0-----0-----0-----|--0-----0-----0------------||
--------------------------|---------------------------||




Duration Legend
---------------
E - 8th

Tablature Legend
---------------
R - 8th Rest
Show more