• Song:

    On The Brightside

  • Artist:

    Nevershoutnever

Tuning - D# standard. [D#,G#,C#,F#,A#,D#]
This took a while, and I'm not sure it's 100%
But, I did my best.
The chords mentioned above the tab are what they would be in standard tuning.
This is also my first tab, so don't be too harsh.

    Am
D#|------0-------0--------0-------0------|
A#|------1-------1--------1-------1------|
F#|------2-------2--------2-------2------|
C#|--------------------------------------|
G#|--0-------0--------0-------0----------|
D#|--------------------------------------|

    E
D#|--------------------------------------|
A#|------0-------0-------0-------0-------|
F#|------1-------1-------1-------1-------|
C#|------2-------2-------2-------2-------|
G#|--------------------------------------|
D#|--0-------0-------0-------0-----------|

    C7 (No 5th)
D#|--------------------------------------|
A#|--------------------------------------|
F#|------3-------3-------3-------3-------|
C#|------2-------2-------2-------2-------|
G#|--3-------3-------3-------3-----------|
D#|--------------------------------------|

    F                Fm
D#|--------------------------------------|
A#|--------------------------------------|
F#|------2-------2-------1-------1-------|
C#|------3-------3-------3-------3-------|
G#|--------------------------------------|
D#|--1-------1-------1-------1-----------|

Repeat once more, but only up to the F chord.
Instead of Fm for the second time, it's G major.

Chorus
     C
D#|--------------------------------------|
A#|------1-------1-------1-------1-------|
F#|------0-------0-------0-------0-------|
C#|--------------------------------------|
G#|--3-------3-------3-------3-----------|
D#|--------------------------------------|

     Am
D#|------0-------0-------0-------0-------|
A#|------1-------1-------1-------1-------|
F#|------2-------2-------2-------2-------|
C#|--------------------------------------|
G#|--0-------0-------0-------0-----------|
D#|--------------------------------------|

     F
D#|--------------------------------------|
A#|--------------------------------------|
F#|------2-------2-------2-------2-------|
C#|------3-------3-------3-------3-------|
G#|--------------------------------------|
D#|--1-------1-------1-------1-----------|

     G
D#|--------------------------------------|
A#|------0-------0-------0-------0-------|
F#|------0-------0-------0-------0-------|
C#|------0-------0-------0-------0-------|
G#|--------------------------------------|
D#|--3-------3-------3-------3-----------| Play chorus twice.

    Am
D#|-------------------------------------------------------------|
A#|-----1-------1-------1-------1-------1-------1-------1-------|
F#|-----2-------2-------2-------2-------2-------2-------2-------|
C#|-------------------------------------------------------------|
G#|--0------0-------0-------0-------0-------0-------0-------0---|
D#|-------------------------------------------------------------|

It's the same way for the rest of the song.
Practice makes perfect.
and for the end, strum C. :].
Show more