• Song:

    On The Brightside

  • Artist:

    Nevershoutnever

-------------------------------------------------------------------------------
                             On The Bright Side – Never Shout Never!
-------------------------------------------------------------------------------
Tabbed by:5xmap5
Tuning:Standard

 Okay. So this is only my second tab, I sort of stole it off of someone I hope they 
mind :/
Well they had the chords. But I played it separately and it sort of matched the actual 
I know if you play it with the song, it sounds pretty weird. But if you just play it and 
along in your head it works. I hope you enjoy it:).

All Verses.

  Am                          E
e|-------------------------------------------------------------------|
B|----1------1------1------1-----------------------------------------|
G|----2------2------2------2----------1---------1--------1-------1---|
D|-2-----2------2-------2-------------2---------2--------2-------2---|
A|-------------------------------2---------2-------2-------2---------|
E|-------------------------------------------------------------------|
   Cadd9                          F
e|-------------------------------------------------------------------|
B|-----1-------1-------1-----1--------1---------1--------1-------1---|
G|-----0-------0-------0-----0--------2---------2--------2-------2---|
D|--------------------------------3--------3--------3---------3------|
A|--3------3-------3------3------------------------------------------|
E|-------------------------------------------------------------------|


Chorus.

   Am                    F
e|---------------------------------------------------------------------|
B|---1----1-----1----1-----1-----1----1---1----------------------------|
G|---2----2-----2----2-----2-----2----2---2----------------------------|
D|-2----2----2----2------3----3----3---3-------------------------------|
A|---------------------------------------------------------------------|
E|---------------------------------------------------------------------|
    G                            C
e|-----3-------3------3-----3------------------------------------------|
B|-----------------------------------1------1------1-------------------|
G|---------------------------------------------------------------------|
D|-----------------------------------2-----2-----2---------------------|
A|-----2-------2------2-----2-----3-----3-----3-----3------------------|
E|--3------3-------3-----3---------------------------------------------|


   Am                    F
e|---------------------------------------------------------------------|
B|---1----1-----1----1-----1-----1----1---1----------------------------|
G|---2----2-----2----2-----2-----2----2---2----------------------------|
D|-2----2----2----2------3----3----3---3-------------------------------|
A|---------------------------------------------------------------------|
E|---------------------------------------------------------------------|
    G                            Am
e|-----3-------3------3-----3------------------------------------------|
B|----------------------------------1----1----1----1-------------------|
G|----------------------------------2----2----2----2-------------------|
D|-------------------------------2----2----2----2----------------------|
A|-----2-------2------2-----2---- -------------------------------------|
E|--3------3-------3-----3---------------------------------------------|

That's pretty much it. You just repeat the whole way through.
Show more