• Song:

    On The Brightside

  • Artist:

    Nevershoutnever

It gets annoying finding tabs that are just partly done so I tabbed the whole thing out 
you all. That way you can just look at the tab and then play and you dont want to have 
keep scrolling up and down. This should be correct, hope you all like it :)

Verse 1
  Am              E               C
E|-------------------------------------------------|
B|---1---1---1---1---0---0---0---0---1---1---1---1-|
G|-------------------------------------------------|
D|-------------------------------------------------|
A|-3---3---3---3---2---2---2---2---0---0---0---0---|
E|-------------------------------------------------|

  F        G
E|------------------------------------------------|
B|------------------------------------------------|
C|---2---2---0---0--------------------------------|
D|------------------------------------------------|
A|------------------------------------------------|
E|-1---1---3---3----------------------------------|

  Am              E               C
E|-------------------------------------------------|
B|---1---1---1---1---0---0---0---0---1---1---1---1-|
G|-------------------------------------------------|
D|-------------------------------------------------|
A|-3---3---3---3---2---2---2---2---0---0---0---0---|
E|-------------------------------------------------|

  F        G
E|------------------------------------------------|
B|------------------------------------------------|
C|---2---2---0---0--------------------------------|
D|------------------------------------------------|
A|------------------------------------------------|
E|-1---1---3---3----------------------------------|

Chorus
  C                Am
E|------------------------------------------------|
B|---1---1---1---1---1---1---1---1----------------|
G|------------------------------------------------|
D|------------------------------------------------|
A|-3---3---3---3---0---0---0---0------------------|
E|------------------------------------------------|

 F                G
E|------------------------------------------------|
B|------------------------------------------------|
C|---2---2---2---2---4---4---4---4----------------|
D|------------------------------------------------|
A|------------------------------------------------|
E|-1---1---1---1---3---3---3---3------------------|

  C                Am
E|------------------------------------------------|
B|---1---1---1---1---1---1---1---1----------------|
G|------------------------------------------------|
D|------------------------------------------------|
A|-3---3---3---3---0---0---0---0------------------|
E|------------------------------------------------|

 F                G
E|------------------------------------------------|
B|------------------------------------------------|
C|---2---2---2---2---4---4---4---4----------------|
D|------------------------------------------------|
A|------------------------------------------------|
E|-1---1---1---1---3---3---3---3------------------|

Verse 2
  Am              E               C
E|-------------------------------------------------|
B|---1---1---1---1---0---0---0---0---1---1---1---1-|
G|-------------------------------------------------|
D|-------------------------------------------------|
A|-3---3---3---3---2---2---2---2---0---0---0---0---|
E|-------------------------------------------------|

  F        G
E|------------------------------------------------|
B|------------------------------------------------|
C|---2---2---0---0--------------------------------|
D|------------------------------------------------|
A|------------------------------------------------|
E|-1---1---3---3----------------------------------|

  Am              E               C
E|-------------------------------------------------|
B|---1---1---1---1---0---0---0---0---1---1---1---1-|
G|-------------------------------------------------|
D|-------------------------------------------------|
A|-3---3---3---3---2---2---2---2---0---0---0---0---|
E|-------------------------------------------------|

  F        G
E|------------------------------------------------|
B|------------------------------------------------|
C|---2---2---0---0--------------------------------|
D|------------------------------------------------|
A|------------------------------------------------|
E|-1---1---3---3----------------------------------|

Chorus
  C                Am
E|------------------------------------------------|
B|---1---1---1---1---1---1---1---1----------------|
G|------------------------------------------------|
D|------------------------------------------------|
A|-3---3---3---3---0---0---0---0------------------|
E|------------------------------------------------|

 F                G
E|------------------------------------------------|
B|------------------------------------------------|
C|---2---2---2---2---4---4---4---4----------------|
D|------------------------------------------------|
A|------------------------------------------------|
E|-1---1---1---1---3---3---3---3------------------|

  C                Am
E|------------------------------------------------|
B|---1---1---1---1---1---1---1---1----------------|
G|------------------------------------------------|
D|------------------------------------------------|
A|-3---3---3---3---0---0---0---0------------------|
E|------------------------------------------------|

 F                G
E|------------------------------------------------|
B|------------------------------------------------|
C|---2---2---2---2---4---4---4---4----------------|
D|------------------------------------------------|
A|------------------------------------------------|
E|-1---1---1---1---3---3---3---3------------------|

Verse 3
  Am              E               C
E|-------------------------------------------------|
B|---1---1---1---1---0---0---0---0---1---1---1---1-|
G|-------------------------------------------------|
D|-------------------------------------------------|
A|-3---3---3---3---2---2---2---2---0---0---0---0---|
E|-------------------------------------------------|

  F        G
E|------------------------------------------------|
B|------------------------------------------------|
C|---2---2---0---0--------------------------------|
D|------------------------------------------------|
A|------------------------------------------------|
E|-1---1---3---3----------------------------------|

  Am              E               C
E|-------------------------------------------------|
B|---1---1---1---1---0---0---0---0---1---1---1---1-|
G|-------------------------------------------------|
D|-------------------------------------------------|
A|-3---3---3---3---2---2---2---2---0---0---0---0---|
E|-------------------------------------------------|

  F        G
E|------------------------------------------------|
B|------------------------------------------------|
C|---2---2---0---0--------------------------------|
D|------------------------------------------------|
A|------------------------------------------------|
E|-1---1---3---3----------------------------------|

Chorus
  C                Am
E|------------------------------------------------|
B|---1---1---1---1---1---1---1---1----------------|
G|------------------------------------------------|
D|------------------------------------------------|
A|-3---3---3---3---0---0---0---0------------------|
E|------------------------------------------------|

 F                G
E|------------------------------------------------|
B|------------------------------------------------|
C|---2---2---2---2---4---4---4---4----------------|
D|------------------------------------------------|
A|------------------------------------------------|
E|-1---1---1---1---3---3---3---3------------------|

  C                Am
E|------------------------------------------------|
B|---1---1---1---1---1---1---1---1----------------|
G|------------------------------------------------|
D|------------------------------------------------|
A|-3---3---3---3---0---0---0---0------------------|
E|------------------------------------------------|

 F                G
E|------------------------------------------------|
B|------------------------------------------------|
C|---2---2---2---2---4---4---4---4----------------|
D|------------------------------------------------|
A|------------------------------------------------|
E|-1---1---1---1---3---3---3---3------------------|
Show more