• Song:

    On The Brightside

  • Artist:

    Nevershoutnever

this is my first tab but im pretty sure that this is right!! ;] its in standard tuning 
eBGDAE and yeah... aha its not easy but it sounds cool amd im 99.9% sure that its 
right![: enjoy :D oh and the thing with the
double---> || and the --> . is supposed to be a reapeat sighn :p

e|-----------------------------------|
B|----1----1----1----1----1----1-----|
G|----2----2----2----2----2----2-----|
D|----2----2----2----2----2----2-----|
A|--0----0----0----0----0----0----0--|
E|-----------------------------------|
    [intro]--^
e|------------------------|------------------------|
B|----1----1----1----1----|------------------------|
G|----2----2----2----2----|----1----1----1----1----|
D|----2----2----2----2----|----2----2----2----2----|
A|--0----0----0----0------|----2----2----2----2----|
E|------------------------|--0----0----0---0-------|

e|------------------------|----1----1----1----1----|
B|----3----3----3----3----|----1----1----1----1----|
G|----0----0----0----0----|----2----2----1----1----|
D|----2----2----2----2----|----3----3----3----3----|
A|--3----3----3----3------|----3----3----3----3----|
E|------------------------|--1----1----1----1------|

e|------------------------|------------------------|
B|----1----1----1----1----|------------------------|
G|----2----2----2----2----|----1----1----1----1----|
D|----2----2----2----2----|----2----2----2----2----|
A|--0----0----0----0------|----2----2----2----2----|
E|------------------------|--0----0----0----0------|

e|------------------------|----1----1----3----3----|
B|----3----3----3----3----|----1----1----3----3----|
G|----0----0----0----0----|----2----2----0----0----|
D|----2----2----2----2----|----3----3----0----0----|
A|--3----3----3----3------|----3----3----2----2----|
E|------------------------|--1----1----3----3------|

e||-------------------------|-------------------------|
B||.----1----1----1----1----|----1----1----1----1-----|
G||-----0----0----0----0----|----2----2----2----2-----|
D||.----2----2----2----2----|----2----2----2----2-----|
A||--3----3----3----3-------|--0----0----0----0-------|
E||-------------------------|-------------------------|

e|----1----1----1----1----|----3----3----3----3-----||
B|----1----1----1----1----|----3----3----3----3----.||
G|----2----2----2----2----|----0----0----0----0-----||
D|----3----3----3----3----|----0----0----0----0----.||
A|----3----3----3----3----|----2----2----2----2-----||
E|--1----1----1----1------|--3----3----3----3-------||

e|----------------------------------|
B|----1----1----1----1----1----1----|
G|----2----2----2----2----2----2----|
D|----2----2----2----2----2----2----|
A|--0----0----0----0----0----0------|
E|----------------------------------|

e|------------------------|------------------------|
B|----1----1----1----1----|------------------------|
G|----2----2----2----2----|----1----1----1----1----|
D|----2----2----2----2----|----2----2----2----2----|
A|--0----0----0----0------|----2----2----2----2----|
E|------------------------|--0----0----0---0-------|

e|------------------------|----1----1----1----1----|
B|----3----3----3----3----|----1----1----1----1----|
G|----0----0----0----0----|----2----2----1----1----|
D|----2----2----2----2----|----3----3----3----3----|
A|--3----3----3----3------|----3----3----3----3----|
E|------------------------|--1----1----1----1------|

e|------------------------|------------------------|
B|----1----1----1----1----|------------------------|
G|----2----2----2----2----|----1----1----1----1----|
D|----2----2----2----2----|----2----2----2----2----|
A|--0----0----0----0------|----2----2----2----2----|
E|------------------------|--0----0----0---0-------|

e||-------------------------|-------------------------|
B||.----1----1----1----1----|----1----1----1----1-----|
G||-----0----0----0----0----|----2----2----2----2-----|
D||.----2----2----2----2----|----2----2----2----2-----|
A||--3----3----3----3-------|--0----0----0----0-------|
E||-------------------------|-------------------------|

e|----1----1----1----1----|----3----3----3----3-----||
B|----1----1----1----1----|----3----3----3----3----.||
G|----2----2----2----2----|----0----0----0----0-----||
D|----3----3----3----3----|----0----0----0----0----.||
A|----3----3----3----3----|----2----2----2----2-----||
E|--1----1----1----1------|--3----3----3----3-------||

e|----------------------------------|
B|----1----1----1----1----1----1----|
G|----2----2----2----2----2----2----|
D|----2----2----2----2----2----2----|
A|--0----0----0----0----0----0------|
E|----------------------------------|

e|------------------------|------------------------|
B|----1----1----1----1----|------------------------|
G|----2----2----2----2----|----1----1----1----1----|
D|----2----2----2----2----|----2----2----2----2----|
A|--0----0----0----0------|----2----2----2----2----|
E|------------------------|--0----0----0---0-------|

e|------------------------|----1----1----1----1----|
B|----3----3----3----3----|----1----1----1----1----|
G|----0----0----0----0----|----2----2----1----1----|
D|----2----2----2----2----|----3----3----3----3----|
A|--3----3----3----3------|----3----3----3----3----|
E|------------------------|--1----1----1----1------|

e|------------------------|------------------------|
B|----1----1----1----1----|------------------------|
G|----2----2----2----2----|----1----1----1----1----|
D|----2----2----2----2----|----2----2----2----2----|
A|--0----0----0----0------|----2----2----2----2----|
E|------------------------|--0----0----0---0-------|

e||-------------------------|-------------------------|
B||.----1----1----1----1----|----1----1----1----1-----|
G||-----0----0----0----0----|----2----2----2----2-----|
D||.----2----2----2----2----|----2----2----2----2-----|
A||--3----3----3----3-------|--0----0----0----0-------|
E||-------------------------|-------------------------|

e|----1----1----1----1----|----3----3----3----3-----||
B|----1----1----1----1----|----3----3----3----3----.||
G|----2----2----2----2----|----0----0----0----0-----||
D|----3----3----3----3----|----0----0----0----0----.||
A|----3----3----3----3----|----2----2----2----2-----||
E|--1----1----1----1------|--3----3----3----3-------||
Show more