• Song:

    Happy Together

  • Artist:

    New Found Glory

Intro:

e|----------5----4-----2--------5----4----2--|
B|----------5----5-----5--------5----5----5--|
G|-------------------------------------------|
D|-------------------------------------------|
A|-------------------------------------------|
D|--0----2--4--------------------------------|


Verso:

e|----------------|
B|----------------|
G|--------7*-6^-6^|
D|--4*-2*-7--6--6-|
A|--4--2--5--4--4-| 
E|--2--0----------| 


Refr?o:

e|----------------|
B|----------------|
G|-----6^---------|
D|--4^-6--4^-7^---|
A|--4--4--4--7----|
E|--2-----2--5----|


Ponte:
e|----------------------------------------------------|
B|----------------------------------------------------|
G|-----6^----6^----6^----6^----6^----6^----6^----6---6|
D|--4^-6--4^-6--4^-6--4^-6--4^-6--4^-6--4^-6--4^-6---6|
A|--4--4--4--4--4--4--4--4--4--4--4--4--4--4--4--4---4|
E|--2-----2-----2-----2-----2-----2-----2-----2-------|
Show more