• Song:

    Jersey Shore

  • Artist:

    New Found Glory

Intro / in between verses 
e|-----------------------------------------------------------------| 
B|-----------------------------------------------------------------| 
G|-----------------------------------------------------------------| 
D|--------------------------------7-7--7-7-7--7-9-9--9/11-9--------| 
A|7-7--7-7-7--7-7-7--7-9-9-11-11--5-5--5-5-5--5-7-7--7/9--7--------| 
E|5-5--5-5-5--5-5-5--5-7-7-9--9------------------------------------| 
 
e|-----------------------------------------------------------------| 
B|-----------------------------------------------------------------| 
G|-----------------------------------------------------------------| 
D|--------------------------------7-7--7-7-7--7-9-9^---------------| 
A|7-7--7-7-7--7-7-7--7-9-9-11-11--5-5--5-5-5--5-7-7^---------------| 
E|5-5--5-5-5--5-5-5--5-7-7-9--9------------------------------------| 
 
  ...At the corner store... / ...not any more... 
e|-----------------------------------------------------------------| 
B|-----------------------------------------------------------------| 
G|-----------------------------------------------------------------| 
D|----7-9-11-9-12-11-7---------------------------------------------| 
A|--7--------------------------------------------------------------| 
E|-----------------------------------------------------------------|
Show more