• Song:

    My Heart Will Go On

  • Artist:

    New Found Glory

  • Album:

    From The Screen To Your...

m = Palm Mute 
 
Intro / Solo (just faster Intro!) 
 
e|---------------------------------- 
b|---------------------------------- 
g|---------------------------------- 
d|--------------------9------------- 
a|-7h9-11-11-11-9-7-9---11-9-7------ 
E|-----------------------------9-7-- 
 
e|---------------------------------- 
b|---------------------------------- 
g|---------------------------------- 
d|--------------------9-7h9-11-11-9- 
a|-7h9-11-11-11-9-7-9--------------- 
E|---------------------------------- 
 
Verse 1 
 
  "Every night in my dreams.." 
e|---------------------------------- 
b|---------------------------------- 
g|999-999-----------------999------- 
d|999-999-999-999-777-777-999-999--- 
a|777-777-999-999-777-777-777-999--- 
E|--------777-777-555-555-----777--- 
  mm  mm  mm  mm  mm  mm  mm  mm 
 
  "That is how i know you go on..." 
e|---------------------------------- 
b|---------------------------------- 
g|-999-999-------------------------- 
d|-999-999-999-999-777-777-777-777-- 
a|-777-777-999-999-777-777-777-777-- 
E|---------777-777-555-555-555-555-- 
   mm  mm  mm  mm  mm  mm  mm  mm 
 
Little thing at the end of verse: 
 
e|---------------------------------- 
b|---------------------------------- 
g|---------------------------------- 
d|77-------------------------------- 
a|77-------------------------------- 
E|55-------------------------------- 
 
Chorus (slower repeat this) 
e|---------------------------------- 
b|---------------------------------- 
g|---------------------------------- 
d|-11-9-7-99-11-9-7--97------------- 
a|-11-9-7-99-11-9-7--97------------- 
E|-9--7-5-77-9--7-5--75------------- 
 
Verse 2 
 
Chorus 
 
Break 
 
e|---------------------------------- 
b|---------------------------------- 
g|999-777--------P.M> Em-2 measures- 
d|999-777--2222--<-<---------------- 
a|777-555--2222--<-<---------------- 
E|---------------------------------- 
 
Solo = Intro faster 
 
Chorus 
 
Ending: 
 
e|---------------------------------- 
b|---------------------------------- 
g|---------------------------------- 
d|--------------------9------------- 
a|-7h9-11-11-11-9-7-9---11-9-7------ 
E|-----------------------------9-7-- 
 
 
New Found Glory - My Heart Will Go On 
Every night in my dreams 
I see you, I feel you 
That is how i know you go on 
Far across the distance and spaces between us 
You have come to show you go on 
 
CHORUS 
Near, far, wherever you are, i believe that the heart does go 
on 
Once more you open the door and you're here in my heart 
and my heart will go on and on 
 
Love can touch us one time 
and last for a lifetime 
and never let go till we're gone 
Love was when i loved you 
one true time i hold to 
In my life you'll always go on 
 
CHORUS 
Near, far, wherever you are, i believe that the heart does go 
on 
Once more you open the door and you're here in my heart 
and my heart will go on and on
Show more