• Song:

    Never Give Up

  • Artist:

    New Found Glory

  • Album:

    Sticks & Stones

Intro n verse 
1st guitar 
e--------------------------------------------------------- 
b--------------------------------------------------------- 
g----6666-9999-6666-4444---------------------------------- 
d----7777-9999-6666-4444----------------------------------repeat 
a----7777-7777-4444-2222---------------------------------- 
e--------------------------------------------------------- 
 
2nd guitar 
e--------------------------------------------------------- 
b--------------------------------------------------------- 
g-----------------------xxxx6~~--------------66----------- 
d-----------------------xxxx7~~--------------77----------- 
a-----------------------xxxx7~~--------------77----------- 
e--------------------------------------------------------- 
 
verse 
 
    (living we me, i dont think it would be so bad) 
e---------------------------------------------------------------------- 
b---------------------------------------------------------------------- 
g--6-~~~~~~----------------------------------------6666-9999-6666-4444- 
d--7-~~~~~~----------------------------------------7777-9999-6666-4444- 
a--7-~~~~~~----------------------------------------7777-7777-4444-2222- 
e----------------------------------------------------------------------
Show more