• Song:

    No News I Good News

  • Artist:

    New Found Glory

Intro: 
|-222-22222--------------------------------------------| 
|-333-33333--------------------------------------------| 
|-222-00000--------------------------------------------| 
|------------------------------------------------------| 
|------------------------------------------------------| 
|------------------------------------------------------| 
 
Verse: 
|------------------------------------------------------| 
|------------------------------------------------------| 
|------------------------------------------------------| 
|-777-55555--------------------------------------------| 
|-777-55555--------------------------------------------| 
|-555-33333--------------------------------------------| 
 
Chorus: 
|----------------------|---------------------------------| 
|----------------------|---------------------------------| 
|--------77-----77777--|-5555555555555555----------------| 
|-555555-77-777-77777--|-5555555555555555----------------| 
|-555555-55-777-55555--|-3333333333333333----------------| 
|-333333----555--------|---------------------------------| 
         (x3) 
 
 
Interlude: 
|----------------------------------------------------------------------| 
|----------------------------------------------------------------------| 
|-7777777777777777-----------------------------------5555555555555555--| 
|-7777777777777777-5555555555555555-7777777777777777-5555555555555555--| 
|-5555555555555555-5555555555555555-7777777777777777-3333333333333333--| 
|------------------3333333333333333-5555555555555555-------------------| 
 
|------------------------------------------------------| 
|------------------------------------------------------| 
|-7777777777777777-------------------------------------| 
|-7777777777777777-------------------------------------| 
|-5555555555555555-------------------------------------| 
|------------------------------------------------------| 
 
End: 
|-3~---------------------------------------------------| 
|-2~---------------------------------------------------| 
|-3~---------------------------------------------------| 
|------------------------------------------------------| 
|------------------------------------------------------| 
|------------------------------------------------------| 
 
End2: 
|---------------------------------------------------------| 
|---------------------------------------------------------| 
|---------------------------------------------------------| 
|-7~------------------------------------------------------| 
|-7~------------------------------------------------------| 
|-5~------------------------------------------------------| 
 
order: 
Intro (x12) 
Intro (x8) and Verse (x8) at same time 
Chorus (x1) 
Intro (x6) 
Intro (x8) and Verse (x8) at same time 
Chorus (x2) 
Interlude (x1) 
Intro (x8) 
Chorus (x2) 
Intro (x3) and Verse (x3) at same time 
End (x1) and End2 (x1) at same time
Show more