• Song:

    The Goonies Are Good Enough

  • Artist:

    New Found Glory

New Found Glory-The Goonies Are Good Enough
Tabbed By: Tom "Fuzz" O. (fuzz4494@aol.com)
Notes:Easy Song. Standard Tuning, EADG. Notes are grouped together
to help show rythm.  

Intro
G|----------------|
D|----------------|
A|-4-44-444-4-----|
E|------------4-7-|

Verse
G|-----------------------------------|
D|-----------------------------------|
A|-----------------2-4-444-4-4-44-42-|
E|-0-000-0-0-00--4-------------------|

Pre-Chorus
G|--------------------------------------------------------|
D|--------------------------------------------------------|
A|-00000000-22222222--------------------00000000-22222222-|
E|-------------------00000000-2222-4444-------------------| 

Chorus
G|-----------------------------------------------------------------------|
D|-----------------------------------------------------------------------|
A|---------------------------00000000-2222222222222222-------------------|
E|-0000000000000000-44444444---------------------------44-4-4-4-55-5-77--|

Ending  
G|---------------------------------------------------------------|
D|---------------------------------------------------------------|
A|-4-44-444-4-----4-44-444-4-----4-44-444-4-----4-44-444-4-------|
E|------------4-7------------4-7------------4-7------------4-7-0-|

Thats all folks!!! questions, comments, my e-mail is above.
Show more