• Song:

    The Goonies Are Good Enough

  • Artist:

    New Found Glory

here you go 


riff 1  repeat 2x
-------------------------------------
-------------------------------------
-------------------------------------
-------------------------------------
-11-11--9h11--11-11-11--9h11-9h11----
--(b9)(b9)--(b9)(b9)--(b9)-(b9)-(b9)--(b9)(b9)-(b9)(b9)----

riff 2 repeat 2x
-------------------------------------
-------------------------------------
-------------------------------------
-22-222--1111-111111--(b9)------------
-22-222--1111-111111--(b9)------------
-00-000--(b9)(b9)-(b9)(b9)(b9)--7--------------
play once
-------------------------------------
-------------------------------------
-------------------------------------
-777--99(b9)-222--444--777--99(b9)--------
-777--99(b9)-222--444--777--99(b9)--------
-555--777--000--222--555--777---------

chorus
-----------------------------------
-----------------------------------
-----------------------------------
-22222222---6666--7777---9999999(b9)-
-22222222---6666--7777---9999999(b9)-
-00000000---4444--5555---77777777--

---------------------
---------------------
[---palm mute--------]
[66-6-77-7-9(b9)(b9)-----]
[66-6-77-7-9(b9)(b9)-----]
[44-4-55-5-77-7------]
Show more