• Song:

    Who Am I

  • Artist:

    New Found Glory

  • Album:

    Catalyst (International...

New Found Glory
Catalyst
Who Am I
Guitar

> = strum eighth notes
~ = let note ring
underline = single note (example: 12 is 12th fret not 1 & then 2, used during solo on higher note values)

Send comments & corrections to guitarstar007@hotmail.com

Intro (clean)
 |1---2---3---4---|1---2---3---4---|1---2---3---4---|1---2---3---4---|
B|----1-------1---|----1-------1---|----------------|1~--------------|
G|--0---0---0---0-|--0---0---0---0-|----2-------2---|2~--------------|
D|----------------|----------------|--3---3---3---3-|3~--------------|
A|3~------2~------|0~--------------|----------------|3~--------------|
E|----------------|--------3~------|1~------1~------|1~--------------|

Main Tune A (Guitar One)
 |1---2---3---4---|1---2---3---4---|1---2---3---4---|1---2---3---4---|
G|5>--------------|----------------|5>--------------|----------------|
D|5>--------------|7>----5>--------|5>--------------|2>----3>--------|
A|3>--------------|7>----5>--------|3>--------------|2>----3>--------|
E|----------------|5>----3>--------|----------------|0>----1>--------|

Main Tune A (Guitar Two)
 |1---2---3---4---|1---2---3---4---|1---2---3---4---|1---2---3---4---|
B|----------------|----------------|----------------|5>----6>--------|
G|5>--------------|----------------|5>--------------|3>----5>--------|
D|5>--------------|7>----5>--------|5>--------------|2>----3>--------|
A|3>--------------|7>----5>--------|3>--------------|----------------|
E|----------------|5>----3>--------|----------------|----------------|

Verse
 |1---2---3---4---|1---2---3---4---|1---2---3---4---|1---2---3---4---|
G|5>--------------|----------------|5>--------------|----------------|
D|5>--------------|7>----5>--------|5>--------------|2>----3>--------|
A|3>--------------|7>----5>--------|3>--------------|2>----3>--------|
E|----------------|5>----3>--------|----------------|0>----1>--------|

Bridge
 |1---2---3---4---|1---2---3---4---|1---2---3---4---|1---2---3---4---|
G|----------------|----------------|5~--------------|----------------|
D|5---5---5-5---5-|--5-5---5---5---|5~--------------|----------------|
A|5---5---5-5---5-|--5-5---5---5---|3~--------------|----------------|
E|3---3---3-3---3-|--3-3---3---3---|----------------|----------------|

Main Tune B (clean)
 |1---2---3---4---|1---2---3---4---|1---2---3---4---|1---2---3---4---|
B|----1-------1---|----1-------1---|----------------|----------------|
G|--0---0---0---0-|--0---0---0---0-|----2-------2---|----2-------2---|
D|----------------|----------------|--3---3---3---3-|--3---3---3---3-|
A|3~------2~------|0~--------------|----------------|----------------|
E|----------------|--------3~------|1~------1~------|1~------1~------|

 |1---2---3---4---|1---2---3---4---|1---2---3---4---|1---2---3---4---|
B|----1-------1---|----1-------1---|----------------|1~--------------|
G|--0---0---0---0-|--0---0---0---0-|----2-------2---|2~--------------|
D|----------------|----------------|--3---3---3---3-|3~--------------|
A|3~------2~------|0~--------------|----------------|3~--------------|
E|----------------|--------3~------|1~------1~------|1~--------------|

Main Tune C
 |1---2---3---4---|1---2---3---4---|1---2---3---4---|1---2---3---4---|
G|5>------4>------|----------------|----------------|----------------|
D|5>------4>------|7>------5>------|3>--------------|----------------|
A|3>------2>------|7>------5>------|3>--------------|----------------|
E|----------------|5>------3>------|1>--------------|----------------|

Interlude
                                   |crescendo----------------------->|
 |1---2---3---4---|1---2---3---4---|1---2---3---4---|1---2---3---4---|
D|2~--------------|----------------|3-3-3-3-3-3-3-3-|3-3-3-3-3-3-3-3-|
A|2~--------------|----------------|3-3-3-3-3-3-3-3-|3-3-3-3-3-3-3-3-|
E|0~--------------|----------------|1-1-1-1-1-1-1-1-|1-1-1-1-1-1-1-1-|
                                    P P P P P P P P  P P P P P P P P

                                   |crescendo----------------------->|
 |1---2---3---4---|1---2---3---4---|1---2---3---4---|1---2---3---4---|
D|2~--------------|----------------|3-3-3-3-3-3-3-3-|3-3-3-3-3-3-3-3-|
A|2~--------------|----------------|3-3-3-3-3-3-3-3-|3-3-3-3-3-3-3-3-|
E|0~--------------|----------------|1-1-1-1-1-1-1-1-|1-1-1-1-1-1-1-1-|
                                    P P P P P P P P  P P P P P P P P

                                   |crescendo----------------------->|
 |1---2---3---4---|1---2---3---4---|1---2---3---4---|1---2---3---4---|
D|7~--------------|----------------|3-3-3-3-3-3-3-3-|3-3-3-3-3-3-3-3-|
A|7~--------------|----------------|3-3-3-3-3-3-3-3-|3-3-3-3-3-3-3-3-|
E|5~--------------|----------------|1-1-1-1-1-1-1-1-|1-1-1-1-1-1-1-1-|
                                    P P P P P P P P  P P P P P P P P

Interlude (last four bars guitar one)
 |1---2---3---4---|1---2---3---4---|1---2---3---4---|1---2---3---4---|
D|7~--------------|----------------|5---------------|----------------|
A|7~--------------|----------------|5---------------|----------------|
E|5~--------------|----------------|3---------------|----------------|

Interlude (last four bars guitar two)
 |1---2---3---4---|1---2---3---4---|1---2---3---4---|1---2---3---4---|
G|----------------|----------------|----------------|--------7-7-7-7-|
D|7~--------------|----------------|5-5-5-5-7-7-7-7-|9-9-9-9---------|
A|7~--------------|----------------|----------------|--------5-5-5-5-|
E|5~--------------|----------------|3-3-3-3-5-5-5-5-|7-7-7-7---------|

Solo
 |1---2---3---4---|
E|----------------|
B|------5-6-5-----|
G|------------7-5-|

 |1---2---3---4---|1---2---3---4---|1---2---3---4---|1---2---3---4---|
E|--------------5-|----------------|----------------|----------------|
B|----8---6-5-----|--8-----6-5-----|--------5-------|--------6-5-----|
G|5---------------|------5-----7-5-|----5-----5-----|--7-6-5-----5-7-|
D|----------------|----------------|3---------------|----------------|

 |1---2---3---4---|1---2---3---4---|1---2---3---4---|1---2---3---4---|
E|----------------|3---3-5-3-------|----------------|--128---107-8---|
B|----8---6-5-----|----------6---5-|----------------|------8---------|
G|5---------------|----------------|7---5-----------|----------------|
D|--------------7-|----------------|----------------|----------------|

Outro (guitar one)
 |1---2---3---4---|1---2---3---4---|1---2---3---4---|1---2---3---4---|
G|5>------4>------|----------------|----------------|----------------|
D|5>------4>------|7>------5>------|3~--------------|----------------|
A|3>------2>------|7>------5>------|3~--------------|----------------|
E|----------------|5>------3>------|1~--------------|----------------|

Outro (guitar two)
 |1---2---3---4---|1---2---3---4---|1---2---3---4---|1---2---3---4---|
B|8~--------------|5~--------------|----------------|----------------|
G|----------------|-------7~-------|----------------|----------------|
D|----------------|----------------|7~--------------|----------------|
Show more