• Song:

    X-mas

  • Artist:

    New Found Glory

Intro 
e|--------------------------------------------| 
B|--------------------------------------------| 
G|--------------------------------------------| 
D|----------------55555555------7777----------| 
A|-5555-55555555--33333333-2222-5555-55555555-| 
E|-3333-33333333-----------0000------33333333-| 
   p.m. 
 
Verse 
e|-----------------------| 
B|-----------------------| 
G|-------------5---------| 
D|-5-----------5---------| 4x 
A|-5-let ring--3---------| 
E|-3---------------------| 
 
pre-Chorus 
e|-----------------------| 
B|-----------------------| 
G|-----------------------| 
D|-9999-7777-55555555----| 
A|-7777-5555-33333333----| 
E|-----------------------| 
conected 
e|-------------------------| 
B|-------------------------| 
G|-------------------------| 
D|-9999-7777-5-4-5-7-------| 
A|-7777-5555-3-2-3-5-------| 
E|-------------------------| 
 
Chorus    "This holiday..." 
e|--------------------------------------| 
B|--------------------------------------| 
G|--------------------------------------| 
D|----------55555555----------77777777--| 
A|-55555555-33333333-22222222-55555555--|  2x 
E|-33333333----------00000000-----------| 
 
Post Chorus    "I spent to much time and money on you." 
e|---------------------------| 
B|---------------------------| 
G|---------------------------| 
D|-55555555-77777777---------|  1x 
A|-33333333-55555555---------| 
E|---------------------------| 
 
Solo 
e|------------------------------------------------------| 
B|------------------------------------------------------| 
G|------------------------------------------------------| 
D|-----9-7-5--------9-7-5--------9-7-5----12-12-10-7-9--|  2x 
A|-555-------5--555-------7--777-------7----------------| 
E|------------------------------------------------------| 
conected 
e|------------| 
B|------------| 
G|------------| 
D|-10-9-10-12-| 
A|------------| 
E|------------|
Show more