• Song:

    Gods Not Dead

  • Artist:

    Newsboys

  Newsboys "God's Not Dead"
e|Intro--------------------------------------------|
B|777-------------77777777-------------------------|
G|----88888888888----------------------------------|
D|-------------------------888888888-99999999999999|
A|-------------------------------------------------|
E|-------------------------------------------------|

e|Intro--------------------------------------------|
B|777-------------77777777-------------------------|
G|----88888888888----------------------------------|
D|-------------------------888888888-99999999999999|
A|-------------------------------------------------|
E|-------------------------------------------------|

e|Intro-----------------------------------------------|
B|777-------------77777777----------------------------|
G|----88888888888------------------------------------7|
D|-------------------------888888888-99999999999999---|
A|----------------------------------------------------|
E|----------------------------------------------------|

e|Verse 1--------------------------------------------|
B|777-------------77777777---------------------------|
G|----88888888888------------------------------------|
D|-------------------------888888888-99999999999999--|
A|---------------------------------------------------|
E|---------------------------------------------------|









he's livin on the inside
e|------------------------------------|
B|------------------------------------|
G|------------------------------------|
D|------------------------------------|
A|66666666666-444444444444-66666666666|
E|44444444444-222222222222-44444444444|

he's roaring he's roaring he's roaring like a lion
e|-----------------------------------------------------|
B|7777-------777777------------------------------------|
G|----888888------------------------------------------7|
D|------------------8888888888888-999999999999999999---|
A|-----------------------------------------------------|
E|-----------------------------------------------------|

he's livin on the inside
e|-----------------------------------------------------|
B|-----------------------------------------------------|
G|-----------------------------------------------------|
D|-----------------------------------------------------|
A|6666666666666666-44444444444444444444-666666666666666|
E|4444444444444444-22222222222222222222-444444444444444|

he's roaring he's roaring he's roaring like a lion
e|-----------------------------------------------|x2
B|777--------7777777-----------------------------|
G|----888888-------------------------------------|
D|--------------------88888888888-999999999999999|
A|-----------------------------------------------|
E|-----------------------------------------------|

he's livin on the inside
e|-----------------------------------------------------|x2
B|-----------------------------------------------------|
G|-----------------------------------------------------|
D|-----------------------------------------------------|
A|6666666666666666-44444444444444444444-666666666666666|
E|4444444444444444-22222222222222222222-444444444444444|

he's roaring he's roaring like a lions
e|---------------------------------------------------|x2
B|777------7777777-----------------------------------|
G|----88888------------------------------------------|
D|-----------------8888888888888888-99999999999999999|
A|---------------------------------------------------|
E|---------------------------------------------------|

he's roaring like a lion
e|-------------|
B|7-----7------|
G|---8---------|
D|----------8/9|
A|-------------|
E|-------------|ending

email me at jondurrant101@gmail.com john durrant
Show more