• Song:

    Teardrop

  • Artist:

    Newton Faulkner

  • Album:

    Teardrop

Newton Faulkner - Teardrop
          tabbed by Alex Stevens

	This man has an incredible talent for the accoustic,
	it's agreat (x02210@1)song, I hope you enjoy it, feel free to rate.
	It's apretty (x02210@1)hard song to learn since your mind is battling with
	4 things at once...(who said men can't multi-task??)
        It is very satisfying song to be able to play so don't give up.

Tuning - Db Gb Db Gb Bb Db
      or D (xx0232@1)G (320003@1)D (xx0232@1)G (320003@1)B (x2444x@1)D (xx0232@1)YouTube Video:
http://www.youtube.com/watch?v=rjT86g9gTKk
***THIS VIDEO IS ABSOLUTELY KEY TO LEARNING THIS SONG***

1. INTRO
2. BEAT
3. MELODY/BASS
4. EXTRAS
5. ORDER OF PLAY

-------------------------------------------------------------
1. INTRO:


Db|--------|--------|--------|--------|
Bb|--------|--------|--------|--------|
Gb|--------|-0------|-0------|--------|
Db|-0------|-0------|-0------|-0------|
Gb|-7------|-5------|--------|-7------|
Db|-0------|--------|-5------|-0------|

Db|--------|--------|--------|--------|
Bb|--------|--------|--------|--------|
Gb|--------|-0------|-0------|--------|
Db|-0------|-0------|-0------|-0------|
Gb|-7------|-5------|--------|-7------|
Db|-0------|--------|-5------|-0------|

Db|--------|--------|--------|
Bb|--------|--------|--------|
Gb|-0------|-0------|--------|
Db|-0------|-0------|-0------|
Gb|-5------|--------|-7------|
Db|--------|-5------|-0------|


-------------------------------------------------------------

-------------------------------------------------------------
2. BEAT:

    #-  #--     #-  |--

    #-  #--     #-  |--

where # means heel of palm above strings/soundhole.
and   | means nail/tip of a finger below the strings/soundhole.
				(near the cutaway if you have one)
the  -- indicate the time of that beat.

-------------------------------------------------------------

-------------------------------------------------------------
3. MELODY/BASS:


Pulling off/Hammering on with 1st (2nd when bass required) and 3rd (4th when bass 
fingers to play the Melody.
Covering the bassline with your 1st finger while plucking the corresponding strings with 
beating hand (you have to be quick!).


Db|--p0--h7-p0-h5-p0-h5-h7--|--p0--h7-p0-h5-p0-h5-h7--|   
Show more