Nomeansno
Mama's Little Boy
Mama

INTRO

G-9---9--12-----------------------|
D-x---x--x------------------------|
A-7---7--10-----------------------|
E-0---0--0------------------------|

VERSE
                                 2nd Ending*
G-9\----------------------------|-9\---------------------------------|
D-x-----------------------------|-x----------------------------------|
A-7\--4-5---5-4-0----3--4--3h4--|-7\--4-5---5-4-0----3-----4-----3/--|
E-0---------------3-------------|-0---------------3------------------|

  *2nd Ending should be played right
   before vocals begin,and before the chorus.


CHORUS

G-9\--------------------------------|
D-x---------------------------------|
A-7\--2---3---4---5---4---3---2h3/--|
E-0---------------------------------|

*REFRAIN
                    1st and 3rd                2nd and 4th
G-9\---------------|-9\-----------------5h6-|-9\-----------------6---7---6-|
D-x----------------|-x----------------------|-x----------------------------|
A-7\-4-5---5-4-0---|-7\-4-5---5-4-0---------|-7\-4-5---5-4-0---------------|
E-0--------------3-|-0--------------3-x-----|-0--------------3-x---x---x---|

  *The Bars before the 'soft' part


NOTES:
-The entire song is basically variations of accents and
timing of the main VERSE riff.  The 2nd Ending, chorus,
and REFRAIN parts are mostly guidelines, the bassist
seems to be noodling to some degree.
-During the verse, cut the notes to accent them and
create that jazzy sound, but let certain notes ring
during the refrain.
-If You have any rhythm problems, listen to the track...
tab just doesn't notate rhythm very well.
-An Octave pedal can definitely help get that octave sound
much easier if you prefer not use a pick.

Questions, Comments, complaints,
E-mail me at stclark93@hotmail.com


ENJOY!
Show more