sponsored links
Artist: Nomeansno
Song: The Tower
Album: Wrong (1989)
Bassist: Rob Wright
Tuning: Eb-Ab-Db-Gb

Intro:
Gb|-----------------------------------------------------------|
Db|----------------------------------------------------2------|
Ab|------------------------------------------------------2-1--|
Eb|--0-0-0-0-0-0-0-0-0-0-0-0-0-0-0-0-0-0-0-0-0-0-0-0-0--------|


Verse 1:
Gb|-----------------------------------------------------------|
Db|-----------------------------------------------------------|
Ab|-----------------------------------------------------------|
Eb|--0-0-0-0-0-0-0-0-0-0-0-0-0-0-0-0-0-0-0-0-0-0-0-0-0-0-0-0--| (x4)


Chorus: "The Tower"
Gb|--------------------------------------------------|
Db|--------------------------------------------------|
Ab|--0-0--5-0h1---0-0--5-x1---0-0--5-x1---0-0--5-x1--|
Eb|--------------------------------------------------|

Gb|-------------------------------------------------|
Db|-------------------------------------------------|
Ab|--0-0--5-x1---0-0--5-x1---0-0--5-x1---0-0--5-x1--|
Eb|-------------------------------------------------|

        "I See Red"
Gb|---------------------------------------------|
Db|---------------------------------------------|
Ab|--2-2----3---2-2----3---2-2----3---2-2----3--|
Eb|-------3----------3----------3----------3----| (x2)

Gb|-----------------------------------------------------------|
Db|-----------------------------------------------------------|
Ab|-----------------------------------------------------------|
Eb|--2-2-2-2-2-2-2-2-2-2-2-2-2-2-2-2-2-2-2-2-2-2-2-2-2-2-2-2--|

Gb|-----------------------------------------------------------|
Db|----------------------------------------------------2------|
Ab|--0-0-0-0-0-0-0-0-0-0-0-0-0-0-0-0-0-0-0-0-0-0-0-0-0---2-1--|
Eb|-----------------------------------------------------------|


Verse 2:
Gb|-----------------------------------------------------------|
Db|----------------------------------------------------2------|
Ab|------------------------------------------------------2-1--|
Eb|--0-0-0-0-0-0-0-0-0-0-0-0-0-0-0-0-0-0-0-0-0-0-0-0-0--------|

Gb|---------------------------------------------------------|
Db|----------------------------------------------2----------|
Ab|--------------------------------------------------2---1--|
Eb|--0-0-0-0-0-0-0-0-0-0-0-0-0-0-0-0-0-0-0-0-0-0------------|

Gb|-----------------------------------------------------------|
Db|-----------------------------------------------------------|
Ab|-----------------------------------------------------------|
Eb|--0-0-0-0-0-0-0-0-0-0-0-0-0-0-0-0-0-0-0-0-0-0-0-0-0-0-0-0--| (x4)



Chorus: "The Tower"
Gb|-------------------------------------------------|
Db|-------------------------------------------------|
Ab|--0-0--5-x1---0-0--5-x1---0-0--5-x1---0-0--5-x1--|
Eb|-------------------------------------------------| (x2)

        "I See Red"
Gb|---------------------------------------------|
Db|---------------------------------------------|
Ab|--2-2----3---2-2----3---2-2----3---2-2----3--|
Eb|-------3----------3----------3----------3----| (x2)

Gb|-----------------------------------------------------------|
Db|-----------------------------------------------------------|
Ab|-----------------------------------------------------------|
Eb|--2-2-2-2-2-2-2-2-2-2-2-2-2-2-2-2-2-2-2-2-2-2-2-2-2-2-2-2--|

Gb|-----------------------------------------------------------|
Db|----------------------------------------------------2------|
Ab|--0-0-0-0-0-0-0-0-0-0-0-0-0-0-0-0-0-0-0-0-0-0-0-0-0---2-1--|
Eb|-----------------------------------------------------------|


Verse 3:
Gb|--------------------------------------------------------------|
Db|-------------------------2-----------------------------2------|
Ab|---------------------------2-1---------------------------2-1--|
Eb|--0---0---0---0---0---0---------0---0---0---0---0---0---------|

Gb|-------------------------------------------------------------------|
Db|-------------------------2------3------4------5------6------7------|
Ab|---------------------------2-1----3-2----4-3----5-4----6-5----7-6--|
Eb|--0---0---0---0---0---0--------------------------------------------|

Gb|-----------------------------------------------------------|
Db|-----------------------------------------------------------|
Ab|-----------------------------------------------------------|
Eb|--0-0-0-0-0-0-0-0-0-0-0-0-0-0-0-0-0-0-0-0-0-0-0-0-0-0-0-0--|

Gb|---------------------------------------------------------|
Db|----------------------------------------------2----------|
Ab|--------------------------------------------------2---1--|
Eb|--0-0-0-0-0-0-0-0-0-0-0-0-0-0-0-0-0-0-0-0-0-0------------|

Gb|--------------------------------------------------------------|
Db|-----------------------------------------------------------1--|
Ab|--------------------------------------------------------------|
Eb|--0-0-0-0-0-0-0-0-0-0-0-0-0-0-0-0-0-0-0-0-0-0-0-0-0-0-0-0-----|

Gb|-----------------------------------------------------------|
Db|-----------------------------------------------------------|
Ab|-----------------------------------------------------------|
Eb|--0-0-0-0-0-0-0-0-0-0-0-0-0-0-0-0-0-0-0-0-0-0-0-0-0-0-0-0--| (x3)

Gb|-----------------------------------------------------|
Db|-----------------------------------------------------|
Ab|-----------------------------------------------------|
Eb|--13-13-13-13-13-13-13-13-0-12-12-12-12-12-12-12-12--| (x2)

Gb|---------------------------------------------------|
Db|---------------------------------------------------|
Ab|---------------------------------------------------|
Eb|--13-13-13-13-13-13-13-13-13-13-13-13-13-13-13-13--|



Chorus: "The Tower"
Gb|-------------------------------------------------|
Db|-------------------------------------------------|
Ab|--0-0--5-x1---0-0--5-x1---0-0--5-x1---0-0--5-x1--|
Eb|-------------------------------------------------| (x2)

        "I See Red"
Gb|---------------------------------------------|
Db|---------------------------------------------|
Ab|--2-2----3---2-2----3---2-2----3---2-2----3--|
Eb|-------3----------3----------3----------3----| (x2)

Gb|-----------------------------------------------------------|
Db|-----------------------------------------------------------|
Ab|-----------------------------------------------------------|
Eb|--2-2-2-2-2-2-2-2-2-2-2-2-2-2-2-2-2-2-2-2-2-2-2-2-2-2-2-2--|

Gb|-----------------------------------------------------------|
Db|----------------------------------------------------2------|
Ab|--0-0-0-0-0-0-0-0-0-0-0-0-0-0-0-0-0-0-0-0-0-0-0-0-0---2-1--|
Eb|-----------------------------------------------------------|


Outro:
Gb|--------------------------------------------------------------|
Db|-------------------------2-----------------------------2------|
Ab|---------------------------2-1---------------------------2-1--|
Eb|--0---0---0---0---0---0---------0---0---0---0---0---0---------|

Gb|-------------------------------------------------------------------|
Db|-------------------------2------3------4------5------6------7------|
Ab|---------------------------2-1----3-2----4-3----5-4----6-5----7-6--|
Eb|--0---0---0---0---0---0--------------------------------------------|

Gb|--------------------------------------4-----------------------------------4--|
Db|----2-2--2-2--2-2--2-2---2-2--2-2--2--3----2-2--2-2--2-2--2-2--2-2--2--2--3--|
Ab|-----------------------------------------------------------------------------|
Eb|--0--------------------0-----------------0-----------------------------------|

Gb|-------------------4-------------------4--|
Db|----2-2--2-2--2--2-3----2-2--2-2--2--2-3--|
Ab|------------------------------------------|
Eb|--0-------------------0-------------------|

Gb|-------------------------------------------|
Db|----2-2--2-2--2-2--2-2--2-2--2-2--2-2-2-2--|
Ab|-------------------------------------------|
Eb|--0----------------------------------------|

Gb|--15---15---15---15---15---15---15---15---15---15--|
Db|--14---14---14---14---14---14---14---14---14---14--|
Ab|--13---13---13---13---13---13---13---13---13---13--|
Eb|---------------------------------------------------|

Gb|--15---15---15---15---15---15---15---15---15---15b~--|
Db|--14---14---14---14---14---14---14---14---14---14~~--|
Ab|--13---13---13---13---13---13---13---13---13---------|
Eb|-----------------------------------------------------|
Show more
sponsored links
sponsored links