sponsored links
#----------------------------------PLEASE NOTE--------------------------------#
#This file is the author's own work and represents their interpretation of the#
#song. You may only use this file for private study, scholarship, or research.#
#-----------------------------------------------------------------------------#
#-- File created with Instab - http://www.pconline.com/~smcarey/instab.html --#
#-----------------------------------------------------------------------------#

Author/Artist: Nonpoint
Title: What A Day
Transcribed by: NPores
Email: npores@ucsd.com

This song is really cool and relatively easy to play.
The tuning is as follows: C G C F A D

-|----------------------------------------------------------------------------
-|----------------------------------------------------------------------------
-|--------5v------------5h7----------5v---------------------------------------
-|----5h7-----------5h7----------5h7----5-------------------------------------
-|-----------------------------------------3b4--------------------------------
-|-0-------------0-------------0----------------------------------------------
   INTRO/VERSE  clean at first, then heavily distorted                        

-|----------------------------------------------------------------------------
-|----------------------------------------------------------------------------
-|--8-7-0----810-10-1012-12---8-7-0--35-5-5/3------------------------------
-|--8-7-0----810-10-1012-12---8-7-0--35-5-5/3------------------------------
-|--8-7-0----810-10-1012-12---8-7-0--35-5-5/3------------------------------
-|--8-7-0----810-10-1012-12---8-7-0--35-5-5/3------------------------------
   CHORUS-repeats 3 more times after                                          

-|----------------------------------------------------------------------------
-|----------------------------------------------------------------------------
-|------0--56-6-6/5----------------------------------------------------------
-|--6-5-0--56-6-6/5----------------------------------------------------------
-|---------56-6-6/5----------------------------------------------------------
-|---------56-6-6/5----------------------------------------------------------
 INTERLUDE - or whatever you want to call it...do four times                  

-|----------------------------------------------------------------------------
-|----------------------------------------------------------------------------
-|--5-------5-----------------------------------------------------------------
-|-----4--------4---5---------------------------------------------------------
-|----------------------------------------------------------------------------
-|----------------------------------------------------------------------------
   After 1st interlude and part of 2nd verse...4X total then 2X normal verse  

-|------------|---------------------------------------------------------------
-|------------|---------------------------------------------------------------
-|--56-6-6/5-|-----58-8-8-810-10-10-10-------------------------------------
-|--56-6-6/5-|-x4--58-8-8-810-10-10-10-------------------------------------
-|--56-6-6/5-|-----58-8-8-810-10-10-10-------------------------------------
-|--56-6-6/5-|-----58-8-8-810-10-10-10-------------------------------------
  AFTER 2ND INTERLUDE - number of strums is relative.figure out rythym yrslf
Show more
sponsored links
sponsored links