sponsored links
Badass song pretty easy to play.You firgure out the rhytm this is basically it 95 % sure its right.


Intro  


You firgure the rythmn not too hard 
e-----------------------------------------------------------------------------------------------]
B-----------------------------------------------------------------------------------------------]
G-----------------------------------------------------------------------------------------------]
D-------4---------------------------------------------------------------------------------------]
A-------2-------------4-------------6------------------2-----------4-----------------6----------]
D---------------------4------------6-----------------2----------4--------------------6----------]

Verse

Palm muted 
e-----------------------------------------------------------------------------------------------]
B-----------------------------------------------------------------------------------------------]
G-----------------------------------------------------------------------------------------------]
D-------4---------------------------------------------------------------------------------------]
A-------2--------------------------6------------------2-----------------------------------------]
D-----------------------------------6------------------2----------------------------------------]
      ^^^^^^^^^^^^^^^^^^^^^^^^^^^^^^^^^^^^^^^^^^^^^^^^^^^^^^^^^^


I dont know the prechorus try the verse open not palm muted

Chorus

e------------------------------------------------------------------------------------------------------]
B------------------------------------------------------------------------------------------------------]
G------------------------------------------------------------------------------------------------------]
D-----------------------------------------4444---------------------------------------------------------]
A-----------6666----------4444------------2222-------------2222----------------------------------------]
D-----------6666----------4444-----------------------------2222----------------------------------------]



Bridge

e-----------------------------------------------------------------------------------------------------]
B-----------------------------------------------------------------------------------------------------]
G-----------------------------------------------------------------------------------------------------]
D-----------------------------------------------------------------------------------------------------]
A---------6----------4------------4------------------4------------------------------------------------]
D---------6----------4------------2------------------4------------------------------------------------]
    
    I will chase it      Grab it stake it    And rub until she fakes it
Show more
sponsored links
sponsored links