• Song:

    Upside Down

  • Artist:

    Off

http://offofficial.com/


Intro/Verse
  (you wonder why i'm always screaming...)
G|--------------------------------------------------------------------------|
D|--------------------------------------------------------------------------|
A|-7-7-7---2--2-2-2-2-2-2-2-2-2-2-2-----------------------------------------|
E|--------------------------------------------------------------------------|
   E       B
G|--------------------------------------------------------------------------|
D|--------------------------------------------------------------------------|
A|-5-5-5--0--0-0-0-0-0-0-0-0-0-0-0------------------------------------------|
E|--------------------------------------------------------------------------|
   D      A

Chorus
  (you turn me inside out...)
G|--------------------------------------------------------------------------|
D|--------------------------------------------------------------------------|
A|-7-7-8-8-8-3-3-3-3-3-0----------------------------------------------------|
E|--------------------------------------------------------------------------|
   E   F     C         A

Solo

G|--------------------------------------------------------------------------|
D|--------------------------------------------------------------------------|
A|-2-2-2--5-5-5-5-5-5-5-5---------------------------------------------------|
E|--------------------------------------------------------------------------|
   B      D

The song ends on an E note.

There are some parts with weird timing but if you just play along with it you 
should pick it up pretty easily.

email me at laurencegrimwood@gmail.com if there are any errors or comments you 
would like to add
Show more