http://www.youtube.com/watch?v=hle-6w1xFnM


Intro 0:08
G|-----------------------------------------------------------||     
D|-----9---9-------------------------------------------------||     
A|-2/7---7---7-----------------------------------------------||     
E|-----------------------------------------------------------|| 


Verse
G|-----------------------------------------------------------||     
D|----------10---10------9---9-------------------------------||     
A|------8-8-----8--8/7-7---7--7/-----------------------------||   8x  
E|-----------------------------------------------------------|| 


Prechorus
G|-------------------------------------5~--------------------||     
D|---------------0~---2~---0~--2~----------------------------||     
A|---------------------------------3~------------------------||     
E|--0-0-0-0-0------------------------------------------------|| 
    
Chorus
G|-----------------------------------------------------------||     
D|---5-4-3-------5-4-3-------5-4-3---------------------------||     
A|----------4-6---------4-6---------4-4-4-4-4-4-4-4/---------||     
E|-----------------------------------------------------------|| 

Verse
G|-----------------------------------------------------------||     
D|------9---9-----10----10-----------------------------------||     
A|---7-7--7--7/8-8-----8--8/---------------------------------||   10x  
E|-----------------------------------------------------------|| 

Prechorus
G|-------------------------------------5~--------------------||     
D|---------------0~---2~---0~--2~----------------------------||     
A|---------------------------------3~------------------------||     
E|-----------------------------------------------------------|| 

Chorus
G|-----------------------------------------------------------||     
D|---5-4-3-------5-4-3-------5-4-3---------------------------||     
A|----------4-6---------4-6---------4-4-4-4-4-4-4-4/---------||    
E|-----------------------------------------------------------|| 

Verse                                   At last verse hold
G|-------------------------------||--------------------------||     
D|------9---9-----10----10-------||--------------------------||     
A|---7-7--7--7/8-8-----8--8/-----||----------8---------------||   9x  
E|-------------------------------||--------------------------||
Show more