INTRO

|-------------------------------------|  
|-------------------------------------|x2
|-----------3333-66666666-6666--------|  
|--333-1-3--3333-66666666-6666-666----|  
|--333-1-3--1111-44444444-4444-666----|  
|--333-1-3---------------------666----|  


VERSE
	                          (...ending 1..)   (..ending 2.. played instead of ending 1 4th time)
|-------------------------|-------------|   |------------|
|-------------------------|-------------|x4 |------------|
|-----------3333-66666666-|-6666--------|   |------------|
|--333-1-3--3333-66666666-|-6666-666----|   |--66-33-66--|
|--333-1-3--1111-44444444-|-4444-666----|   |--66-33-66--|
|--333-1-3----------------|------666----|   |--66-33-66--|


CHORUS

|--------------------------------------------------------------------|--------------------|
|--------------------------------------------------------------------|--------------------|
|--66666666-88888888-------------------------------------------------|--------------------|
|--66666666-88888888-1-3333333333333333--6666666666666-1-66666666----|--6p5---5/3-1-------|
|--44444444-66666666-1-3333333333333333--6666666666666-1-66666666----|------6-------3-----|
|--------------------1-3333333333333333--6666666666666-1-66666666----|--------------------|

INTERLUDE
                    (................play during last chorus................)
|-----------|-15h16p15-15h16p15-15h16p15-15h16p15-15h16p15----------|
|-----------|-------------------------------------------------------|
|-----------|-------------------------------------------------------|
|-----------|-------------------------------------------------------|
|--3-6-5----|-------------------------------------------------------|
|--------6--|-------------------------------------------------------|
Show more