Song        : Harmoni (Intro Only)
Artist      : Padi
Tabbed by   : yoos
kunjungi yoosyoes.blogspot.com


e|-----------9----------3---3-10-14---------|
B|--7---7-10-----10-------3-------------14--|
G|----7--------7----7---0------------11-----|
D|--0--------0--------------------0---------|
A|------------------------------------------|
E|------------------------------------------|

e|-----------9----------3p2-3-----3-------------|
B|--7---7-10-----10-----------0------(7)----14--|
G|----7--------7----7-----------0---------11----|
D|--0--------0--------------0-------------------|
A|----------------------------------------------|
E|----------------------------------------------|

e|-----------9----------3---3-10---14-------|
B|--7---7-10-----10-------3------12-----14--|
G|----7--------7----7---0-------------11----|
D|--0--------0------------------------------|
A|------------------------------------------|
E|------------------------------------------|

e|-----------9----------3p2-3---0--(12)--|
B|--7---7-10-----10-----------3----(12)--|
G|----7--------7----7-------0------------|
D|--0--------0---------------------------|
A|---------------------------------------|
E|---------------------------------------|

Yang dalam kurung () disentuh sedikit aja tepat di atas fret
jangan ditekan
Show more