Song        : Jangan Datang Malam Ini
Artist      : Padi
Tabbed by   : yoos
(untuk request kunjungi yoosyoes.blogspot.com)


@Intro
e|------12----------------------------------------12-12-------------------------|
B|---------14---15-15-15-14------12-12----14------------15-14------12-12-12-----|
G|--/14---------------------14---------14----14---------------14------------14--|
D|------------------------------------------------------------------------------|
A|------------------------------------------------------------------------------|
E|------------------------------------------------------------------------------|


@Solo
e|----------------------------------------------------------------------------------------|
B|----------------------------------------------------------------------------------------|
G|--6h7-7-7-6----6h7-8-7-6-7-6---6h7-7-7-6----6h7-8-7-6-7-6---6h7-7-7-6----6h7-8-7-6-7-6--|
D|----------------------------------------------------------------------------------------|
A|----------------------------------------------------------------------------------------|
E|----------------------------------------------------------------------------------------|

e|-------------------------------------------------------------------------------------|
B|-----------------7-------------------------------------------------------------------|
G|------6------------7-9-7-6\4--------6---6---4-4-------4------------------------------|
D|--9-7----7-5-7/9-------------7-5-7--------------7-5-4---7-5-7-4-5-7-5-4---4----------|
A|------------------------------------------------------------------------7---7-4-5-7--|
E|-------------------------------------------------------------------------------------|

e|----------------------------------------14-12--10-9-7h9p7h9p7-7---------------------------17--|
B|------10--------10--------10------------------------------------10-9-7-7h9p7h9p7------/19-----|
G|--/12-----10h12-----10h12-----10h12-10-------------------------------------------9-7----------|
D|----------------------------------------------------------------------------------------------|
A|----------------------------------------------------------------------------------------------|
E|----------------------------------------------------------------------------------------------|
Show more