• Song:

    Infest ( 5 Strings )

  • Artist:

    Papa Roach

sponsored links
Author/Artist: Papa Roach
Title: Infest
Album: LoveHateTragedy/Infest 
Transcribed by: Brad Delson 
Email: Brad_Delson@lycos.com
Instrument : Hartke WK5 5 String Bass

Intro :
e|------------------------------------------------------------|
G|------------------------------------------------------------|
D|-----7-7--3-3--7-7--3-3-------------------------------------|x2 
A|-5-5-------------------3-3--5-5-----------------------------|
E|------------------------------------------------------------|

Verse :
e|------------------------------------------------------------|
G|------------------------------------------------------------|
D|---3-3-------3-3--------------------------------------------| 
A|-5-----3-3--5----3-3----------------------------------------|
E|------5---------5-------------------------------------------|

Riff :
e|------------------------------------------------------------|
G|------------------------------------------------------------|
D|------------------------------------------------------------| 
A|-5-5-5-5--5-5-5-5-5--5-5-5-5-5--5-5-3-3-5-5-5---------------|
E|------------------------------------------------------------|

Riff 2 :
e|------------------------------------------------------------|
G|------------------------------------------------------------|
D|------------------------------------------------------------| 
A|-3----------------------------------------------------------|
E|--5-5-5-7-8-5-5-5-5-1-1-3-3-5-5-5---------------------------|

Chorus :
e|------------------------------------------------------------|
G|------------------------------------------------------------|
D|------------------------------------------------------------| 
A|-5-5-8-8-5-5-10-8-10------------8-7-8-----------------------|
E|---------------------5-5-8-8-5-5----------------------------|
Show more
sponsored links
sponsored links