• Song:

    No Matter What

  • Artist:

    Papa Roach

  • Album:

    Time for Annihilation.....

sponsored links
intro

   we┬┤ve indestructible...
Gb---------------------------------------------------|
Db---------------------------------------------------|
Ab-19\7~---5-x5~---3-x3~-7-x7~---5-x5~--\15-x15~-----|
Eb---------------------------------------------------|

  we will make it all alive..
Gb---------------------------------------------------|
Db---------------------------------------------------|
Ab-3333355---------5555555---------------------------|
Eb--------000000000----------------------------------|

         chorus.
  no matter what....
Gb---------------------------------------------------|
Db---------------------------------------------------|
Ab-----------55555555555----------3333\151515--------|
Eb-3333333333-----------0000000000-------------------|
  chorus end & lirycs 2
Gb----------------------------7h/9-------------------|
Db-------------------------7-9-----------------------|
Ab-7~~77\3-x3~---5-x5~--7~7-------7\-----------------|
Eb---------------------------------------------------|

b----------------------------------------------------|
Db---------------------------------------------------|
Ab-3-x3~---5-x5~--7~x--------------------------------|
Eb-------------------0-0-----------------------------|
  we will make it all alive..
Gb---------------------------------------------------|
Db---------------------------------------------------|
Ab-3333355---------5555555---------------------------|
Eb--------000000000----------------------------------|
   chorus 2
Gb---------------------------------------------------|
Db---------------------------------------------------|
Ab-----------55555555555----------33333333333--------|
Eb-3333333333-----------0000000000-------------------|

Gb----------------------------------------------------|
Db----------------------------5\77\5\77---------------|
Ab-----------22335-5-5-5-00000------------3333\151515-|
Eb-3333333333-----5-5-5-------------------------------|

                 solo
Gb----------------------------------------------------|
Db-------------------------------555555555------------|
Ab----------------3-3-3-3-333-5-7---------235555\1717-|
Eb-0-0-0h/3-0-0h/3------------------------------------|
    and everybdy says...
Gb---------------------------------------------------|
Db---------------------------------------------------|
Ab----------22222333335555555------------------------|
Eb-000000000-----------------3~~---------------------|

tunned half step
Show more
sponsored links
sponsored links