• Song:

    Fuck The Jazz

  • Artist:

    Peer Gunt

  • Album:

    Peer G√ľnt

transcribed: Pekka Huuskonen pekka.huuskonen@raketti.net

This isn't, in any means, note for note transcription of the song.
It is supposed to give somekind of overview of the song.

T?m? ei ole mitenk??n tarkka 'nuotinnos',
vaan tarkoitus on antaa vinkki? miten ko. biisi menee.


notation legend:      

/   - slide up
   - slide down
~   - vibrato
b (x24432@1) - bend 1/4      
po  - pull off
                

Main Riff:

E||----------------|--------------------||
B||--3b------------|--------------------||
G||.-3b------------|-------------------.||
D||.-----5--5--5---|--5--5--5po3po0----.||
A||----------------|--------------------||
E||----------------|--------------------||


Verse:

E||------------------|------------------||
B||--3---------------|------------------||
G||.-3---------------|-----------------.||
D||.-5--5------------|------5po3po0----.||
A||------------------|------------------||
E||------------------|------------------||


Bridge1:

E|---------------|--------------------|----------------------|--------------------|
B|---------------|--------------------|----------------------|--------------------|
G|-5-------------|-5----/ 9-----------|-5--------------------|-5------------------|
D|-5----5----3---|-5----/10---8---3---|-5----3ho5po3-----3---|-5------------------|
A|---------5-----|--------------------|---------------5------|--------------------|
E|---------------|--------------------|----------------------|--------------------|


Chorus:

E|-------------|-------------|-------------|-------------|
B|-------------|-------------|-------------|-------------|
G|-------------|-------------|-------------|-------------|
D|-7--7--9--9--|-7--7--9--9--|-7--7--9--9--|-7--7--9--9--|
A|-5--5--5--5--|-5--5--5--5--|-5--5--5--5--|-5--5--5--5--|
E|-------------|-------------|-------------|-------------|


E|-------------|-------------|-------------|--------------|
B|-------------|-------------|-------------|--------------|
G|-------------|-------------|-------------|--------------|
D|-3--3--5--5--|-3--3--5--5--|-5--5--7--7--|-5--5---------|
A|-1--1--1--1--|-1--1--1--1--|-3--3--3--3--|-3--3---------|
E|-------------|-------------|-------------|-------3----1-|


Solo intro:

E|---------------------|-----------------|
B|---------------------|-----------------|
G|---------------------|-----------------|
D|-----------5--3------|-----------------|
A|----2--3-5-------5-3-|-1---3-----------|
E|-3-------------------|----------1--1-3-|


Tabbed by pekka.huuskonen@raketti.net


Show more