00:30
||-----------------------||
||-----------------------|| x2
||-4--4------------------||
||-----------------------||

00:38
||-----------------------||
||-----------------------|| x8
||-4--4----------------4-||
||-------4--5---5--5-5---||

00:53 / VERSE
||-----------------------|-----------------------|-----------------------|
||-----------------------|-----------------------|-----------------------|
||-4--4------------------|-7--7------------------|-7--7------------------|
||-------4--5---5---7----|-------4--5---5---7----|-------4--5---5---7----|
   We're both...
|-----------------------||
|-----------------------||
|-7--7------------------||
|-------4--5---5---4----||

||-----------------------|-----------------------||
||-----------------------|-----------------------||
||-4--4----------------4-|-4--4----------------4-||
||-------4--5---5--5-5---|-------4--5---5--5-5---||

||-----------------------|-----------------------|-----------------------|
||-----------------------|-----------------------|-----------------------|
||-4--4------------------|-7--7------------------|-7--7------------------|
||-------4--5---5---7----|-------4--5---5---7----|-------4--5---5---7----|

|-----------------------||
|-----------------------||
|-7--7------------------||
|-------4--5---5---4----||

||-----------------------|-----------------------||
||-----------------------|-----------------------||
||-4--4----------------4-|-4--4----------------4-||
||-------4--5---5--5-5---|-------4--5---5--5-5---||

||-----------------------|-----------------------|-----------------------|
||-----------------------|-----------------------|-----------------------|
||-4--4------------------|-7--7------------------|-7--7------------------|
||-------4--5---5---7----|-------4--5---5---7----|-------4--5---5---7----|

|-----------------------||
|-----------------------||
|-7--7------------------||
|-------4--5---5---4----||

||-----------------------|-----------------------||
||-----------------------|-----------------------||
||-4--4----------------4-|-4--4----------------7-||
||-------4--5---5--5-5---|-------4--5---5--5-5---||

1:31 / CHORUS
||-----------------------||
||-----------------------|| x8
||-4--4----------------4-||
||-------4--5---5--5-5---||
But it's beautiful...

1:45
||-----------------------|-----------------------|-----------------------|
||-----------------------|-----------------------|-----------------------|
||-4--4------------------|-7--7------------------|-7--7------------------|
||-------4--5---5---7----|-------4--5---5---7----|-------4--5---5---7----|
   If the body...
|-----------------------||
|-----------------------||
|-7--7------------------||
|-------4--5---5---4----||


||-----------------------|-----------------------||
||-----------------------|-----------------------||
||-4--4----------------4-|-4--4----------------4-||
||-------4--5---5--5-5---|-------4--5---5--5-5---||

||-----------------------|-----------------------|-----------------------|
||-----------------------|-----------------------|-----------------------|
||-4--4------------------|-7--7------------------|-7--7------------------|
||-------4--5---5---7----|-------4--5---5---7----|-------4--5---5---7----|

|-----------------------||
|-----------------------||
|-7--7------------------||
|-------4--5---5---4----||

||-----------------------|-----------------------||
||-----------------------|-----------------------||
||-4--4----------------4-|-4--4----------------4-||
||-------4--5---5--5-5---|-------4--5---5--5-5---||

||-----------------------|-----------------------|-----------------------|
||-----------------------|-----------------------|-----------------------|
||-4--4------------------|-7--7------------------|-7--7------------------|
||-------4--5---5---7----|-------4--5---5---7----|-------4--5---5---7----|

|-----------------------||
|-----------------------||
|-7--7------------------||
|-------4--5---5---4----||

||-----------------------|-----------------------||
||-----------------------|-----------------------||
||-4--4----------------4-|-4--4----------------7-||
||-------4--5---5--5-5---|-------4--5---5--5-5---||

2:23 / CHORUS
||-----------------------||
||-----------------------|| x8
||-4--4----------------4-||
||-------4--5---5--5-5---||
But it's beautiful...

2:38
||-----------------------||
||-----------------------||
||-4--4------------------||
||-------4--5---5---7----||
   You're white...

||------------||
||------------||
||-7--7--7--7-|| x7
||------------||

2:46
||------------||
||------------||
||------------||
||-4-----5----||

2:53
||-----------------------||
||-----------------------||x15
||-4--4------------------||
||-------(4)--5----------||

3:21
||-----------------------||
||-----------------------|| x28
||-4--4------------------||
||-------4--5---5---7----||

4:20
||-----------------------||
||-----------------------|| x7
||-4---------------------||
||-------5---------------||
Show more