• Song:

    Papas Got A Brand New Pigbag

  • Artist:

    Pigbag

I was upset, because there wasn't a good tab of this, so then i made it.
e--------------------------------------------------------------|
B--------------------------------------------------------------|
G--------------------------------------------------------------|
D------------5---5-5-------------------------------------------|
A-----3-3-3----------6-5h6p5-----------------------------------|
E--------------------------------------------------------------|
And just repeat this, it's the trumpet part.
The rest is just variations on this, very easy to figure out.
I'll throw in a bonus, just like Billy Mays.
Limited offer; the alternate tab, which is exactly the same notes, but on different strings.
Here it goes:
e--------------------------------------------------------------|
B--------------------------------------------------------------|
G----------0--0-0----------------------------------------------|
D-----------------1-0h1p0--------------------------------------|
A----3-3-3-----------------------------------------------------|
E--------------------------------------------------------------|
Show more