• Song:

    Natasa

  • Artist:

    Poslednja Igra Leptira

Izvodjac: Poslednja Igra Leptira
Album: Napokon ploca(1982)
Bass tab: Brx
E-mail: rattusnorvegicus89@gmail.com
YT: www.youtube.com/brx999
Link obrade pesme: http://www.youtube.com/watch?v=0S7mmsvlOiI


Intro/Bridge


G----9---------|
D--7---7-------|
A--------------|
E--------------|

G----5---------|
D--3---3-------|
A--------------|
E--------------|

G----7---------|
D--5---5-------|
A--------------|
E--------------|

G----9---------|
D--7---7-------|
A--------------|
E--------------|

G--------------|
D--------------|
A--7-6-/-------|
E--------------|


Refren

G-----------------------------------------|
D-----------------------------------------|
A------7---------3----------5-----3-2-0---|
E--5-8------1--4-------3--6---------------|


...gledao sam... (riff1)
G-----------------------------------------------|
D-----------------------------------------------|
A-------3-5----5--------------------------------|
E--5-------------3-----5-5-0-3--5-5-0-3---------|


G-----------------------------------------------|
D-----------------------------------------------|
A-------3-5-------------------------------------|
E--5-------------3-----5-5-0-3--5-5-0-3---------|


...al ostao je kljuc od stana...(riff2)

G-------------------------------------------------------------------------|
D-------------------------------------------------------------------------|
A---5-----3-2---------3-5-----3-2---------3-5-----3-2---------------------|
E-------------3--5----------------3-5-----------------3-5---5-3----0------|

Refren(x8)

Intro/Bridge

riff1

riff2

Refren(x8)

riff1

riff2

Bass solo

G-------------------------------------------------|
D-------------------------------------------------|
A--7-5-----------7-7-5-----------7-7-5------------|
E------7----5-7--------7----5-7--------7----------|

Refren(x11)


Kraj

G-----------------------------------------|
D-----------------------------------------|
A------7---------3---------2-3------------|
E--5-8------1--4---------3-----5----------|

http://en.wikipedia.org/wiki/Poslednja_Igra_Leptira
Show more