• Song:

    Simple Sister

  • Artist:

    Procul Harum

  • Album:

    Delicado

This is my first tab so it probably contains loads of mistakes!

INTRO / CHORUS / GUITAR SOLO

G|------------------------------------------------------|
D|------------------------------------------------------|
A|---3-3-3-3-3-----6-7-8-9------1-1-1-1-1-----5-6-7-8---|
E|------------------------------------------------------|

G|------------------------------------------------------|
D|------------------------------------3/5---3-4-5-------|
A|------------------------------------------------------|
E|---4-4-4-4-4-----8-9-10-11--------3-------------------|

VERSE 1

G|-------------------------------------------------------------------------|
D|-------------------------------------------------------------------------|
A|---3-3--------1-3-5-6-6--------4-6-8-10---------8-10-8-6-666---56---45---|
E|-------0-1-3------------3-4-6-----------6-8-10-------------------56---45-|

VERSE 2 (2:36 - onwards)

G|---------------------------------------------------------------------------|
D|---------------------------------------------------------------------------|
A|---3-3--------1-3-5-6-6--------4-6-8-10---------8-10-8-6-6-----6-----0-1-2-|
E|-------0-1-3------------3-4-6-----------6-8-10-------------6-6-----3-------|

OUTRO (5:31)

G|--------------------------------------------|
D|--------------4-4-4-4-4---------------------|
A|----3-3-3-3-3-----------3-3-3-3-3---3-------|
E|--------------------------------------------|
Show more