sponsored links
This is a pretty cool song have fun with it.

Play: (fast)
   A      Bb G
e:------------------------------------------------|
B:------------------------------------------------|
G:------------------------------------------------|x lots
D:-7-7-7-7-8-5--7-7-7-7-8-5--7-7-7-7-7-7-7-7-8-5--|
A:-7-7-7-7-8-5--7-7-7-7-8-5--7-7-7-7-7-7-7-7-8-5--|
D:-7-7-7-7-8-5--7-7-7-7-8-5--7-7-7-7-7-7-7-7-8-5--|

then:

     C           C# B
e:--------------------------------------------------------------------|
B:--------------------------------------------------------------------|
G:--------------------------------------------------------------------|
D:---10-10-10-10-11-8--10-10-10-10-11-8--10-10-10-10-10-10-10-10-11-8-|x lots
A:---10-10-10-10-11-8--10-10-10-10-11-8--10-10-10-10-10-10-10-10-11-8-|  too
D:---10-10-10-10-11-8--10-10-10-10-11-8--10-10-10-10-10-10-10-10-11-8-|

then go back to the first riff and play it again

Then:
Break:
------

"F***'EM, AND THEIR LAW"

    D     D                        G  F# G  F#
e:---------------------------------------------|
B:---------------------------------------------|
G:---------------------------------------------|
D:--0--0--12---0--12-----0--0--12--------------|
A:--0--0--12---0--12-----0--0--12--3--2--3--2--|
D:--0--0--12---0--12-----0--0--12--3--2--3--2--|


e:------------------------------------------|
B:------------------------------------------|
G:------------------------------------------|
D:--0--0--12--0--12----0--0--12----16-17-13-|
A:--0--0--12--0--12----0--0--12-------------|
D:--0--0--12--0--12----0--0--12-------------|

Play lots

Further down the song play this (over previous bit):
e:---------------------------|--------------------------------|
B:---------------------------|----------------15-15-15-13-15--|
G:------15-14-12--15-14-12---|-------15-14-12-----------------|
D:--0------------------------|---0----------------------------|
A:--0------------------------|---0----------------------------|
D:--0------------------------|---0----------------------------|
Show more
sponsored links
sponsored links