sponsored links
#----------------------------------PLEASE NOTE--------------------------------#
#This file is the author's own work and represents their interpretation of the#
#song. You may only use this file for private study, scholarship, or research.#
#-----------------------------------------------------------------------------#



Author/Artist: Prong
Title: Controller
Album: Rude Awakening
Transcribed by: southpaw25@ziplip.com
Username: okregisterme

(x) - sound the note without striking, by sliding into it
      from below
p - palm-mute
/ - slide up
 - slide down
s - semi-tone bend
(x)X(x) - 1st number indicates number of preceding staffs to repeat,
          2nd number indicates number of repeats
* - whammy this note
r - release bend
tr - trill

detune strings 1-5 one whole step
detune string 6 two whole steps (it isn't used in this song)

  intro - thanks to krakpot for the intro

1--------------------------------------------------
2-4-4-4-4/(5)-----4-4-4-4/(5)-------4-4-4-4/(5)----
3-2-2-2-2/(3)-%---2-2-2-2/(3)-%-----2-2-2-2/(3)-%--
4--------------------------------------------------
5--------------------------------------------------
6--------------------------------------------------

                                         p p 
1---------------------------------------------
2-4-4-4-4/(5)-----4-4-4-4/(5)-----------------
3-2-2-2-2/(3)-%---2-2-2-2/(3)-%---------------
4---------------------------------------------
5-----------------------------------0-/-0-0--
6---------------------------------------------

  verse  

1-----------------------------------------------------------------
2-----------------------------------------------------------------
3-----------------------------------------------------------------
4-8--7-7-7---8--7--8--7--8-8-8--7-7-7---8--7--8--7--8-8-8--7-7-7--
5-6--0-0-0---6--0--6--0--6-6-6--0-0-0---6--0--6--0--6-6-6--0-0-0--
6-----------------------------------------------------------------

1-----------------------------------------------
2-----------------------------------------------
3-----------------------------------------------
4-8--7--8--7--8-8-8--9-9-9-9-9-9-9-9-9-9-9s--9--
5-6--0--6--0--6-6-6-----------------------------
6-----------------------------------------------  

1-----------------------------------------------------------------------------
2-----------------------------------------------------------------------------
3-----------------------------------8-8-8-8--------------------------8-8-8-8--
4-8--7-7-7---8--7--8--7--8-8-8--7-7-----------8--7--8--7--8-8-8--7-7----------
5-6--0-0-0---6--0--6--0--6-6-6--0-0-----------6--0--6--0--6-6-6--0-0----------
6-----------------------------------------------------------------------------

1-----------------------------------------------
2-----------------------------------------------
3-----------------------------------------------
4-8--7--8--7--8-8-8--9-9-9-9-9-9-9-9-9-9-9s--9--
5-6--0--6--0--6-6-6-----------------------------
6-----------------------------------------------  2X1

                                    * * * *
1-----------------------------------------------------------------------------
2-----------------------------------------------------------------------------
3-----------------------------------8-8-8-8--------------------------8-8-8-8--
4-8--7-7-7---8--7--8--7--8-8-8--7-7-----------8--7--8--7--8-8-8--7-7----------
5-6--0-0-0---6--0--6--0--6-6-6--0-0-----------6--0--6--0--6-6-6--0-0----------
6-----------------------------------------------------------------------------

1-----------------------------------------------
2-----------------------------------------------
3-----------------------------------------------
4-8--7--8--7--8-8-8--9-9-9-9-9-9-9-9-9-9-9s--9--
5-6--0--6--0--6-6-6-----------------------------
6-----------------------------------------------
 
  chorus - with pinch harmonics

1--------------------------------------------------------------------
2--------12sr--------------------------------12sr--------------------
3-11sr----------11sr---11sr---9-------11sr----------11sr---11sr---9--  
4--------------------------------10---------------------------------- 
5--------------------------------------------------------------------
6--------------------------------------------------------------------  1X1

  2nd verse - mostly same as first verse, listen for the whammy pedal

  2nd chorus - same as first

  solo - tremolo strum these octaves, trill at times, and use wah

1-----------------
2-----------------
3-4-----------10--
4-x-----------x---
5-2tr3--------8---
6-----------------

  or maybe

1------------------
2------------------
3------------------
4-9tr10--------15--
5------------------
6------------------

  2nd solo - whammy noise
Show more
sponsored links
sponsored links