• Song:

    Keep Pushing

  • Artist:

    REO Speedwagon

intro- 7h9p7 is played as a trill-  in the intro the guitar and keyboard
e:---------------------------------------------------------------------------|
B:-7-h-9-p-7-----7----------7-h-9-p-7-----7--------7-h-9-p-7-----7-----------|
G:------------9-----9------------------9-----9----------------9-----9--8--6--|
D:---------------------------------------------------------------------------|
A:---------------------------------------------------------------------------|
E:---------------------------------------------------------------------------|
  


  are playing in synch.
e:-----------------------------------------------------------------------7--9|
B:----7-h-9-p-7-----7---------7-h-9-p-7-----7--------7-h-9-p-7-----7--9------|
G:---------------9-----9-----------------9-----9----------------9------------|
D:---------------------------------------------------------------------------|
A:---------------------------------------------------------------------------|
E:---------------------------------------------------------------------------|
  



e:---------------------------------------------------------------------------|
B:-----7-h-9-p-7-----7---------7-h-9-p-7-----7---------7-h-9-p-7-----7-------|
G:----------------9-----9-----------------9-----9-----------------9-----9--8-|
D:---------------------------------------------------------------------------|
A:---------------------------------------------------------------------------|
E:---------------------------------------------------------------------------|
  you should be able to figure out the timing by listening to it.  (I wrote




e:---------------------------------------------------------------------------|
B:--------7-h-9-p-7-----7---------7-h-9-p-7-----7---------------------------7|
G:-6-----------------9-----9-----------------9-----9---------6--8--9--8--9---|
D:--------------------------------------------------------9------------------|
A:---------------------------------------------------------------------------|
E:---------------------------------------------------------------------------|
 the rhythm in fifths but it can be played in chords.


                                 I used to be lonely...     
e:-----------------7--9------------------------------------------------------|
B:-----7--9--7--9------------------------------------------------------------|
G:--9----------------------------2--2----2--2--2--2------4--4----4--4--4--4--|
D:-------------------------------2--2----2--2--2--2------4--4----4--4--4--4--|
A:-------------------------------0--0----0--0--0--0------2--2----2--2--2--2--|
E:---------------------------------------------------------------------------|
                       (2nd verse) Goin through all the changes  I made



                                           I found other things... 
e:---------------------------------------------------------------------------|
B:---------------------------------------------------------------------------|
G:-------6--6----6--6--6--6--6----4-4-2-2--2--2---2--2---4--4----4--4--4--4--|
D:-------6--6----6--6--6--6--6----4-4-2-2--2--2---2--2---4--4----4--4--4--4--|
A:-------4--4----4--4--4--4--4----2-2-0-0--0--2---0--0---2--2----2--2--2--2--|
E:---------------------------------------------------------------------------|
  


                                   And Im gettin to know... 
e:---------------------------------------------------------------------------|
B:---------------------------------------------------------------------------|
G:-6--6----6--6--6--6----4-4-2-2---2-2--2--2--2---4--4---4---4--4-----6-6---6|
D:-6--6----6--6--6--6----4-4-2-2---2-2--2--2--2---4--4---4---4--4-----6-6---6|
A:-4--4----4--4--4--4----2-4-0-0---0-0--0--0--0---2--2---2---2--2-----4-4---4|
E:---------------------------------------------------------------------------|
  


                       Whoa, keep pushin'on   keep pushin'on, yeah  (chorus)   
e:---------------------------------------------------------------------------|
B:---------------------------------------------------------------------------|
G:--6--6--6---4-4-2-2--4--4--6---6--6----6---4---6--6-6666666-------2-2--2-2-|
D:--6--6--6---4-4-2-2--4--4--6---6--6----6---4---6--6-6666444-------2-2--2-2-|
A:--4--4--4---2-2-0-0--2--2--4---4--4----4---2---4--4-4444444-------0-0--0-0-|
E:---------------------------------------------------------------------------|
                                                                   



       Keep pushin  Keep pushin  Keep pushin on...           
e:---------------------------------------------------------------------------|
B:---------------------------------------------------------------------------|
G:2----4-4--4-4-4----6-6--6-6-6-6-6-6-6-6-6-6-6---4-4-2-2--2-2-2-------4-4---|
D:2----4-4--4-4-4----6-6--6-6-6-6-6-6-6-6-6-6-6---4-4-2-2--2-2-2-------4-4---|
A:0----2-2--2-2-2----4-4--4-4-4-4-4-4-4-4-4-4-4---2-2-0-0--0-0-0-------2-2---|
E:---------------------------------------------------------------------------|



                  
          Keep pushin                 Keep pushin   Keep pushin   Keep pushin
e:---------------------------------------------------------------------------|
B:---------------------------------------------------------------------------|
G:4-4-4---6-6--6-6-6-6-6-6-6-6---4-4-2-2--2-2-2----4-4--4-4-4----6-6--6-6-6-6|
D:4-4-4---6-6--6-6-6-6-6-6-6-6---4-4-2-2--2-2-2----4-4--4-4-4----6-6--6-6-6-6|
A:2-2-2---4-4--4-4-4-4-4-4-4-4---2-2-0-0--0-0-0----2-2--2-2-2----4-4--4-4-4-4|
E:---------------------------------------------------------------------------|



  
                    the solo isn't exact but it should get you in the ballpark
e:---------------------------------------------------------------------------|
B:------------------------------9--8--6sl----sl10-sl10--b12-10--b15-15-b15-15|
G:-6-6-6-6--4-4-2-2--2-2-2---------------------------------------------------|
D:-6-6-6-6--4-4-2-2--2-2-2---------------------------------------------------|
A:-4-4-4-4--2-2-0-0--0-0-0---------------------------------------------------|
E:---------------------------------------------------------------------------|
                             



e:---------------------------------------------------------------------------|
B:-b15-15-b15-15-b15-15-b15-15-b15-15-b15-14---sl-9--sl-9----------------b19-|
G:---------------------------------------------------------9--8--6sl---------|
D:---------------------------------------------------------------------------|
A:---------------------------------------------------------------------------|
E:---------------------------------------------------------------------------|
  



e:---------------------------------------------------------------------------|
B:17-10--b12--10p9--10p9--10p9--10p9--10p9--10p9--10p9--10sl14--b17-14-14sl--|
G:---------------------------------------------------------------------------|
D:---------------------------------------------------------------------------|
A:---------------------------------------------------------------------------|
E:---------------------------------------------------------------------------|




                                                                       
e:------------------------------------------------------------19sl-----
B:sl16--b16-16-16sl---17sl--16sl--14sl--9sl----------------------------------|
G:-------------------------------------------8h9p8h9p8h9p8h9-----------|
D:---------------------------------------------------------------------
A:-------------------------------------------------------------
E:---------------------------------------------------------------------







  (fill 1)
                                                                   
e:19-1919191919--b19-1919191919--b19-1919191919--------
B:-----------------------------------------------------------------
D:-----------------------------------------------------------------
A:-----------------------------------------------------------------
E:----------------------------------------------------------19sl---
                                                                   


First verse
   
   I used to be lonely till I learned about livin alone 
I found other things to keep my mind on
And I'm gettin to know myself a little bit better
Whoa, keep pushin on, keep pushin on yeah

Second verse
   Goin through all the changes I made so many mistakes
Oh yes I did, tryin to leave behind the heartache
Sometimes I think I was a little bit crazy
Whoa yeah, whoa keep pushin on.

Third verse
   Well it's comin together, I finally feel like a man
Oh yes I do, I never thought that I'd be where I am
Everyday I wake a little bit higher (fill 1)
Whoa I keep pushin on

Chorus
   Keep pushin, keep pushin, keep pushin, keep pushin on
Keep pushin, keep pushin, (you know that I've got to be so strong)
Keep pushin, keep pushin, (even if you think you're strength is gone)
Keep pushin on

I know this isn't exact but I hope it helps! Enjoy!!!!
Show more