• Song:

    Today Your Love Tomorrow The World

  • Artist:

    Ramones

--------------
Artist: Ramones
Title: Today Your Love, Tomorrow The World
Album: Ramones (1976)
Tabbed by: Lukein
-----------------------

Intro

G|------------------------------------------------------------------------|
D|-------------------5-5-5-5-5-5-5-5--2-2-2-2-2-2-2-2-2-2-2-2-2-2---------|
A|--3-3-3-3-3-3-3-3-------------------------------------------------------|
E|------------------------------------------------------------------------| x4

G|------------------------------------------------------------------------|
D|--0-0-0-0-0-0-0-0--2-2-2-2-2-2-2-2--0-0-0-0-0-0-0-0--2-2-2-2-2-2-2-2----|
A|------------------------------------------------------------------------|
E|------------------------------------------------------------------------| x2


Verse

G|------------------------------------------------------------------------|
D|-------------------5-5-5-5-5-5-5-5--2-2-2-2-2-2-2-2-2-2-2-2-2-2---------|
A|--3-3-3-3-3-3-3-3-------------------------------------------------------|
E|------------------------------------------------------------------------| x4


Chorus 1

G|------------------------------------------------------------------------|
D|--0-0-0-0-0-0-0-0--2-2-2-2-2-2-2-2--0-0-0-0-0-0-0-0--2-2-2-2-2-2-2-2----|
A|------------------------------------------------------------------------|
E|------------------------------------------------------------------------| x2


Chorus 2

G|------------------------------------------------------------------------|
D|--0-0-0-0-0-0-0-0--2-2-2-2-2-2-2-2--0-0-0-0-0-0-0-0--2-2-2-2-2-2-2-2----|
A|------------------------------------------------------------------------|
E|------------------------------------------------------------------------| x1

G|------------------------------------------------------------------------|
D|--0-0-0-0-0-0-0-0--2-2-2-2-2-2-2-2--0-0-0-0-0-0-0-0--2------------------|
A|------------------------------------------------------------------------|
E|------------------------------------------------------------------------| x2


Outro (in the sixth time, let the final note ring)

G|------------------------------------------------------------------------|
D|------------------------------------------------------------------------|
A|-------------------5-5-5-5--7-7-7-7-------------------------------------|
E|--5-5-5-5-5-5-5-5-------------------------------------------------------| x6
Show more