sponsored links
Band: Rancid
Song: Disorder and disarray
Album: ...And out come the wolves (Hellcat, 1995)
&= 10th fret( i have done this because the "10" looks very messy on the tab and can be confusing.)

Intro/Chorus:
----------------------------------------------------------
----------------------------------------------------------
-&-&&&&&&-&-8---------------------------------------------
-&-&&&&&&-&-8--&-8-88-xx----------------------------------
-8-888888-8-6--&-8-88-xx----------------------------------
---------------8-6-66-xx----------------------------------


Verse:
(fast palm muting)
pm..   pm....   pm.....   pm..
----------------------------------------------------------
----------------------------------------------------------
-----&--------&-------------------------------------------
-----&--------&--------&-xx----8-xx-----------------------
--88-8--88-88-8--------&-xx----8-xx-----------------------
-----------------88-88-8-xx-66-6-xx-----------------------

Pre Chorus:
------------------------------------------------------------
------------------------------------------------------------
-8-88888888888----------------------------------------------
-8-88888888888---&-&&&&&&&&&&&&-&&xx------------------------
-6-66666666666-9-&-&&&&&&&&&&&&-&&xx------------------------
---------------7-8-888888888888-88xx------------------------

Reggae Bridge:
pm.......................
-----------------888---66-0------------------------------------
----&&&-x-&&&----888---66-0------------------------------------
----&&&-x-&&&----999---77-0------------------------------------
----&&&-x-&&&-------------0------------------------------------
-8-------------------------------------------------------------
---------------8-----6-----------------------------------------

Break on the last chorus:
-1-111111--8-888888------------------------------------------------------
-1-111111--8-888888------------------------------------------------------
-2-222222--7-777777------------------------------------------------------
-3-333333--8-888888------------------------------------------------------
-3-333333--8-888888------------------------------------------------------
-1-111111/-6-666666------------------------------------------------------


all of tab transcribed by ear by Dave Wood- disappearingboy9@hotmail.com
Show more
sponsored links
sponsored links