sponsored links
BAND: RANCID
BASSIST: MATT FREEMAN
SONG: HYENA

ALL CREDIT GOES TO COMPOSERS OF THE SONG

INTRO

G----------------          G-----------------
D------0/1-0-----          D---------0--0----
A---1-3------3-1- x4 THEN  A-3-2-3-4-----310-  WHOLE THING 4 TIMES, SPEED IT UP AS U GO ALONG
E-3--------------          E-----------------

VERSE

G-0-0-----------0-----------
D---3-0-----3-3-----------3-
A-------3322------33211-3---  x4
E---------------------------

CHORUS

G-----0--------------
D-3-3------122-0-----
A-------33-------3-1-
E--------------------

BRIDGE

G---------------2222-
D-33333333-1111------
A--------------------
E--------------------

BRIDGE 2

G-------------------------------------
D------0000---------------000-3210----
A-1111------1111-0000-1111--------322-
E-------------------------------------

ORDER*

INTRO
VERSE
CHORUS
VERSE
CHORUS 
INTRO
BRIDGE 1
VERSE
BRIDGE 2
CHORUS
Show more
sponsored links
sponsored links