• Song:

    Snow Hey Oh

  • Artist:

    Red Hot Chili Peppers

sponsored links
Title       : Snow (Hey Oh)
Artist      : Red Hot Chili Peppers
Album       : Stadium Arcadium

Ear tabber  : Walter Michael De la Cruz 
E-mail add 1: Walterfdelacruz@yahoo.com

Address     : Baguio City, Philippines
Date of Tab : May 10,2006


This is much easier when you use a capo.Because the fingers of John is very fast.
if your finger is short then you will have a hard time playing this.
But through my tab, i made it more simplier.Hope you like this.
Please rate it!



Take note:

Capo on 4th Fret


Legend:

h hammer
/ slide


----- 
Intro| 00:00 - 00:08
-----


e|---------------------|---------------------|---------------------|-----------------------|
B|---------------------|---------------------|---------------------|-----------------------|
G|-----0---0h-2h-0---0-|-----0---0h-2h-0---0-|---------------------|-------2---2h-4h-2---2-|
D|---2---2---------2---|---2---2---------2---|-----0---0h-2h-0---0-|-----4---4---------4---|
A|-2-------------------|-3-------------------|---2---2---------2---|-2/5-------------------|
E|---------------------|---------------------|-3-------------------|-----------------------|


e|---------------------|---------------------|---------------------|-----------------------|
B|---------------------|---------------------|---------------------|-----------------------|
G|-----0---0h-2h-0---0-|-----0---0h-2h-0---0-|---------------------|-----------------------|
D|---2---2---------2---|---2---2---------2---|-----0---0h-2h-0---0-|-----0---0h-2h-0---0---|
A|-2-------------------|-3-------------------|---2---2---------2---|---0---0---------2-----|
E|---------------------|---------------------|-3-------------------|-2---------------------|


-------
Intro 2| Drums And Bass will come in    00:09 - 00:17
-------


e|---------------------|---------------------|---------------------|-----------------------|
B|---------------------|---------------------|---------------------|-----------------------|
G|-----0---0h-2h-0---0-|-----0---0h-2h-0---0-|---------------------|-------2---2h-4h-2---2-|
D|---2---2---------2---|---2---2---------2---|-----0---0h-2h-0---0-|-----4---4---------4---|
A|-2-------------------|-3-------------------|---2---2---------2---|-2/5-------------------|
E|---------------------|---------------------|-3-------------------|-----------------------|


e|---------------------|---------------------|---------------------|-----------------------|
B|---------------------|---------------------|---------------------|-----------------------|
G|-----0---0h-2h-0---0-|-----0---0h-2h-0---0-|---------------------|-----------------------|
D|---2---2---------2---|---2---2---------2---|-----0---0h-2h-0---0-|-----0---0h-2h-0---0---|
A|-2-------------------|-3-------------------|---2---2---------2---|---0---0---------2-----|
E|---------------------|---------------------|-3-------------------|-2---------------------|


-------
Verse 1| 00:18 - 00:35      
------- 


e|---------------------|---------------------|---------------------|-----------------------|
B|---------------------|---------------------|---------------------|-----------------------|
G|-----0---0h-2h-0---0-|-----0---0h-2h-0---0-|---------------------|-------2---2h-4h-2---2-|
D|---2---2---------2---|---2---2---------2---|-----0---0h-2h-0---0-|-----4---4---------4---|
A|-2-------------------|-3-------------------|---2---2---------2---|-2/5-------------------|
E|---------------------|---------------------|-3-------------------|-----------------------|


e|---------------------|---------------------|---------------------|-----------------------|
B|---------------------|---------------------|---------------------|-----------------------|
G|-----0---0h-2h-0---0-|-----0---0h-2h-0---0-|---------------------|-----------------------|
D|---2---2---------2---|---2---2---------2---|-----0---0h-2h-0---0-|-----0---0h-2h-0---0---|
A|-2-------------------|-3-------------------|---2---2---------2---|---0---0---------2-----|
E|---------------------|---------------------|-3-------------------|-2---------------------|


e|---------------------|---------------------|---------------------|-----------------------|
B|---------------------|---------------------|---------------------|-----------------------|
G|-----0---0h-2h-0---0-|-----0---0h-2h-0---0-|---------------------|-------2---2h-4h-2---2-|
D|---2---2---------2---|---2---2---------2---|-----0---0h-2h-0---0-|-----4---4---------4---|
A|-2-------------------|-3-------------------|---2---2---------2---|-2/5-------------------|
E|---------------------|---------------------|-3-------------------|-----------------------|


e|---------------------|---------------------|---------------------|-----------------------|
B|---------------------|---------------------|---------------------|-----------------------|
G|-----0---0h-2h-0---0-|-----0---0h-2h-0---0-|---------------------|-----------------------|
D|---2---2---------2---|---2---2---------2---|-----0---0h-2h-0---0-|-----0---0h-2h-0---0---|
A|-2-------------------|-3-------------------|---2---2---------2---|---0---0---------2-----|
E|---------------------|---------------------|-3-------------------|-2---------------------|

Come to decide that the things that I tried were in my life just to get high on. 
When I sit alone, come get a little known 
but I need more than myself this time. 
Step from the road to the sea to the sky, and I do believe that we rely on 
when I lay it on, come get to play it on 
all my life to sacrifice. 


-------
Chorus |  00:36 - 00:53      
------- 

e|---------------------|---------------------|---------------------|-----------------------|
B|---------------------|---------------------|---------------------|-----------------------|
G|-----0---0h-2h-0---0-|-----0---0h-2h-0---0-|---------------------|-------2---2h-4h-2---2-|
D|---2---2---------2---|---2---2---------2---|-----0---0h-2h-0---0-|-----4---4---------4---|
A|-2-------------------|-3-------------------|---2---2---------2---|-2/5-------------------|
E|---------------------|---------------------|-3-------------------|-----------------------|


e|---------------------|---------------------|---------------------|-----------------------|
B|---------------------|---------------------|---------------------|-----------------------|
G|-----0---0h-2h-0---0-|-----0---0h-2h-0---0-|---------------------|-----------------------|
D|---2---2---------2---|---2---2---------2---|-----0---0h-2h-0---0-|-----0---0h-2h-0---0---|
A|-2-------------------|-3-------------------|---2---2---------2---|---0---0---------2-----|
E|---------------------|---------------------|-3-------------------|-2---------------------|


e|---------------------|---------------------|---------------------|-----------------------|
B|---------------------|---------------------|---------------------|-----------------------|
G|-----0---0h-2h-0---0-|-----0---0h-2h-0---0-|---------------------|-------2---2h-4h-2---2-|
D|---2---2---------2---|---2---2---------2---|-----0---0h-2h-0---0-|-----4---4---------4---|
A|-2-------------------|-3-------------------|---2---2---------2---|-2/5-------------------|
E|---------------------|---------------------|-3-------------------|-----------------------|


e|---------------------|---------------------|---------------------|-----------------------|
B|---------------------|---------------------|---------------------|-----------------------|
G|-----0---0h-2h-0---0-|-----0---0h-2h-0---0-|---------------------|-----------------------|
D|---2---2---------2---|---2---2---------2---|-----0---0h-2h-0---0-|-----0---0h-2h-0---0---|
A|-2-------------------|-3-------------------|---2---2---------2---|---0---0---------2-----|
E|---------------------|---------------------|-3-------------------|-2---------------------|


Hey oh...listen what I say oh 
I got your hey oh, now listen what I say oh 


-------
Verse 2| 00:54 - 01:11      
------- 

e|---------------------|---------------------|---------------------|-----------------------|
B|---------------------|---------------------|---------------------|-----------------------|
G|-----0---0h-2h-0---0-|-----0---0h-2h-0---0-|---------------------|-------2---2h-4h-2---2-|
D|---2---2---------2---|---2---2---------2---|-----0---0h-2h-0---0-|-----4---4---------4---|
A|-2-------------------|-3-------------------|---2---2---------2---|-2/5-------------------|
E|---------------------|---------------------|-3-------------------|-----------------------|


e|---------------------|---------------------|---------------------|-----------------------|
B|---------------------|---------------------|---------------------|-----------------------|
G|-----0---0h-2h-0---0-|-----0---0h-2h-0---0-|---------------------|-----------------------|
D|---2---2---------2---|---2---2---------2---|-----0---0h-2h-0---0-|-----0---0h-2h-0---0---|
A|-2-------------------|-3-------------------|---2---2---------2---|---0---0---------2-----|
E|---------------------|---------------------|-3-------------------|-2---------------------|


e|---------------------|---------------------|---------------------|-----------------------|
B|---------------------|---------------------|---------------------|-----------------------|
G|-----0---0h-2h-0---0-|-----0---0h-2h-0---0-|---------------------|-------2---2h-4h-2---2-|
D|---2---2---------2---|---2---2---------2---|-----0---0h-2h-0---0-|-----4---4---------4---|
A|-2-------------------|-3-------------------|---2---2---------2---|-2/5-------------------|
E|---------------------|---------------------|-3-------------------|-----------------------|


e|---------------------|---------------------|---------------------|-----------------------|
B|---------------------|---------------------|---------------------|-----------------------|
G|-----0---0h-2h-0---0-|-----0---0h-2h-0---0-|---------------------|-----------------------|
D|---2---2---------2---|---2---2---------2---|-----0---0h-2h-0---0-|-----0---0h-2h-0---0---|
A|-2-------------------|-3-------------------|---2---2---------2---|---0---0---------2-----|
E|---------------------|---------------------|-3-------------------|-2---------------------|


When will I know that I really can't go 
to the well once more - time to decide on. 
Well it's killing me, when will I really see, all that I need to look inside. 
Come to belive that I better not leave before I get my chance to ride, 
well it's killing me, what do I really need - all that I need to look inside. 


-------
Chorus |  01:12 - 01:29      
------- 


e|---------------------|---------------------|---------------------|-----------------------|
B|---------------------|---------------------|---------------------|-----------------------|
G|-----0---0h-2h-0---0-|-----0---0h-2h-0---0-|---------------------|-------2---2h-4h-2---2-|
D|---2---2---------2---|---2---2---------2---|-----0---0h-2h-0---0-|-----4---4---------4---|
A|-2-------------------|-3-------------------|---2---2---------2---|-2/5-------------------|
E|---------------------|---------------------|-3-------------------|-----------------------|


e|---------------------|---------------------|---------------------|-----------------------|
B|---------------------|---------------------|---------------------|-----------------------|
G|-----0---0h-2h-0---0-|-----0---0h-2h-0---0-|---------------------|-----------------------|
D|---2---2---------2---|---2---2---------2---|-----0---0h-2h-0---0-|-----0---0h-2h-0---0---|
A|-2-------------------|-3-------------------|---2---2---------2---|---0---0---------2-----|
E|---------------------|---------------------|-3-------------------|-2---------------------|


e|---------------------|---------------------|---------------------|-----------------------|
B|---------------------|---------------------|---------------------|-----------------------|
G|-----0---0h-2h-0---0-|-----0---0h-2h-0---0-|---------------------|-------2---2h-4h-2---2-|
D|---2---2---------2---|---2---2---------2---|-----0---0h-2h-0---0-|-----4---4---------4---|
A|-2-------------------|-3-------------------|---2---2---------2---|-2/5-------------------|
E|---------------------|---------------------|-3-------------------|-----------------------|


e|---------------------|---------------------|---------------------|-----------------------|
B|---------------------|---------------------|---------------------|-----------------------|
G|-----0---0h-2h-0---0-|-----0---0h-2h-0---0-|---------------------|-----------------------|
D|---2---2---------2---|---2---2---------2---|-----0---0h-2h-0---0-|-----0---0h-2h-0---0---|
A|-2-------------------|-3-------------------|---2---2---------2---|---0---0---------2-----|
E|---------------------|---------------------|-3-------------------|-2---------------------|


Hey oh...listen what I say oh 
I got your hey oh, now listen what I say oh 


------
Bridge| 01:30 - 01:44
------  ordinary strumming Up and down. 
        Just listen to the song for progression



e|-----------------------------------------------------|
B|--5--5---5---5---5--5---5---5----5----5---5----5-----|
G|--5--5---5---5---5--5---5---5----5----5---5----5-----|
D|--5--5---5---5---5--5---5---5----5----5---5----5-----|  
A|-----------------------------------------------------|
E|-----------------------------------------------------|

The more I see the less I know  The more I like to let it 


e|-----------------------------------------------------|
B|-7----------8--------------5-------------------------|
G|-7----------9--------------5-------------------------|
D|-7----------9--------------5-------------------------|  
A|-----------------------------------------------------|
E|-----------------------------------------------------|

   go      - hey      oh, woah... 

--------
Bridge 2| 01:44 - 02:17
--------

e|-33333333---|-55555555--|--77777777777777777|
B|-33333333---|-77777777--|--88888888888888888|
G|-44444444---|-77777777--|--99999999999999999|    X 4
D|-55555555---|-77777777--|--99999999999999999|
A|-55555555---|-55555555--|--XXXXXXXXXXXXXXXXX|
E|-33333333---|-XXXXXXXX--|-------------------|


Deep beneath the cover of another perfect wonder where it's so white as snow, 
Privately divided by a world so undecided and there's nowhere to go; 
In between the cover of another perfect wonder and it's so white as snow, 
running through a field where all my tracks will be concealed and there's nowhere to go. 
Ho! 

-------------
Instrumental:| 02:18  - 02:26
-------------


e|---------------------|---------------------|---------------------|-----------------------|
B|---------------------|---------------------|---------------------|-----------------------|
G|-----0---0h-2h-0---0-|-----0---0h-2h-0---0-|---------------------|-------2---2h-4h-2---2-|
D|---2---2---------2---|---2---2---------2---|-----0---0h-2h-0---0-|-----4---4---------4---|
A|-2-------------------|-3-------------------|---2---2---------2---|-2/5-------------------|
E|---------------------|---------------------|-3-------------------|-----------------------|


e|---------------------|---------------------|---------------------|-----------------------|
B|---------------------|---------------------|---------------------|-----------------------|
G|-----0---0h-2h-0---0-|-----0---0h-2h-0---0-|---------------------|-----------------------|
D|---2---2---------2---|---2---2---------2---|-----0---0h-2h-0---0-|-----0---0h-2h-0---0---|
A|-2-------------------|-3-------------------|---2---2---------2---|---0---0---------2-----|
E|---------------------|---------------------|-3-------------------|-2---------------------|

-------
verse 3| 02:27 - 02:44
-------

e|---------------------|---------------------|---------------------|-----------------------|
B|---------------------|---------------------|---------------------|-----------------------|
G|-----0---0h-2h-0---0-|-----0---0h-2h-0---0-|---------------------|-------2---2h-4h-2---2-|
D|---2---2---------2---|---2---2---------2---|-----0---0h-2h-0---0-|-----4---4---------4---|
A|-2-------------------|-3-------------------|---2---2---------2---|-2/5-------------------|
E|---------------------|---------------------|-3-------------------|-----------------------|


e|---------------------|---------------------|---------------------|-----------------------|
B|---------------------|---------------------|---------------------|-----------------------|
G|-----0---0h-2h-0---0-|-----0---0h-2h-0---0-|---------------------|-----------------------|
D|---2---2---------2---|---2---2---------2---|-----0---0h-2h-0---0-|-----0---0h-2h-0---0---|
A|-2-------------------|-3-------------------|---2---2---------2---|---0---0---------2-----|
E|---------------------|---------------------|-3-------------------|-2---------------------|

e|---------------------|---------------------|---------------------|-----------------------|
B|---------------------|---------------------|---------------------|-----------------------|
G|-----0---0h-2h-0---0-|-----0---0h-2h-0---0-|---------------------|-------2---2h-4h-2---2-|
D|---2---2---------2---|---2---2---------2---|-----0---0h-2h-0---0-|-----4---4---------4---|
A|-2-------------------|-3-------------------|---2---2---------2---|-2/5-------------------|
E|---------------------|---------------------|-3-------------------|-----------------------|


e|---------------------|---------------------|---------------------|-----------------------|
B|---------------------|---------------------|---------------------|-----------------------|
G|-----0---0h-2h-0---0-|-----0---0h-2h-0---0-|---------------------|-----------------------|
D|---2---2---------2---|---2---2---------2---|-----0---0h-2h-0---0-|-----0---0h-2h-0---0---|
A|-2-------------------|-3-------------------|---2---2---------2---|---0---0---------2-----|
E|---------------------|---------------------|-3-------------------|-2---------------------|


Went to descend to ammend for a friend 
All the channels that have broken down. Now you bring it up, 
I'm gonna ring it up, 
Just to hear you sing it out. 
Step from the road to the sea to the sky, 
and I do belive what we rely on, 
when I lay it on, come get to play it on 
all my life to sacrifice 


-------
Chorus |  02:45 - 03:02   
------- 


e|---------------------|---------------------|---------------------|-----------------------|
B|---------------------|---------------------|---------------------|-----------------------|
G|-----0---0h-2h-0---0-|-----0---0h-2h-0---0-|---------------------|-------2---2h-4h-2---2-|
D|---2---2---------2---|---2---2---------2---|-----0---0h-2h-0---0-|-----4---4---------4---|
A|-2-------------------|-3-------------------|---2---2---------2---|-2/5-------------------|
E|---------------------|---------------------|-3-------------------|-----------------------|


e|---------------------|---------------------|---------------------|-----------------------|
B|---------------------|---------------------|---------------------|-----------------------|
G|-----0---0h-2h-0---0-|-----0---0h-2h-0---0-|---------------------|-----------------------|
D|---2---2---------2---|---2---2---------2---|-----0---0h-2h-0---0-|-----0---0h-2h-0---0---|
A|-2-------------------|-3-------------------|---2---2---------2---|---0---0---------2-----|
E|---------------------|---------------------|-3-------------------|-2---------------------|


e|---------------------|---------------------|---------------------|-----------------------|
B|---------------------|---------------------|---------------------|-----------------------|
G|-----0---0h-2h-0---0-|-----0---0h-2h-0---0-|---------------------|-------2---2h-4h-2---2-|
D|---2---2---------2---|---2---2---------2---|-----0---0h-2h-0---0-|-----4---4---------4---|
A|-2-------------------|-3-------------------|---2---2---------2---|-2/5-------------------|
E|---------------------|---------------------|-3-------------------|-----------------------|


e|---------------------|---------------------|---------------------|-----------------------|
B|---------------------|---------------------|---------------------|-----------------------|
G|-----0---0h-2h-0---0-|-----0---0h-2h-0---0-|---------------------|-----------------------|
D|---2---2---------2---|---2---2---------2---|-----0---0h-2h-0---0-|-----0---0h-2h-0---0---|
A|-2-------------------|-3-------------------|---2---2---------2---|---0---0---------2-----|
E|---------------------|---------------------|-3-------------------|-2---------------------|


Hey oh...listen what I say oh 
I got your hey oh, now listen what I say oh 


-------
Bridge3|  03:03 - 03:15
------- 


e|-----------------------------------------------------|
B|--5--5---5---5---5--5---5---5----5----5---5----5-----|
G|--5--5---5---5---5--5---5---5----5----5---5----5-----|
D|--5--5---5---5---5--5---5---5----5----5---5----5-----|  
A|-----------------------------------------------------|
E|-----------------------------------------------------|

The more I see the less I know  The more I like to let it 


e|-----------------------------------------------------|
B|-7----------8--------------5-------------------------|
G|-7----------9--------------5-------------------------|
D|-7----------9--------------5-------------------------|  
A|-----------------------------------------------------|
E|-----------------------------------------------------|

   go      - hey      oh, woah... 


--------
Bridge 4| 03:16 - 5:36
--------

e|-33333333---|-55555555--|--77777777777777777|
B|-33333333---|-77777777--|--88888888888888888|
G|-44444444---|-77777777--|--99999999999999999|    X 4
D|-55555555---|-77777777--|--99999999999999999|
A|-55555555---|-55555555--|--XXXXXXXXXXXXXXXXX|
E|-33333333---|-XXXXXXXX--|-------------------|


Deep beneath the cover of another perfect wonder where it's so white as snow, 
Privately divided by a world so undecided and there's nowhere to go; 
In between the cover of another perfect wonder and it's so white as snow, 
running through a field where all my tracks will be concealed and there's nowhere to go. 

e|-33333333---|-55555555--|--77777777777777777|
B|-33333333---|-77777777--|--88888888888888888|
G|-44444444---|-77777777--|--99999999999999999|    X 4
D|-55555555---|-77777777--|--99999999999999999|
A|-55555555---|-55555555--|--XXXXXXXXXXXXXXXXX|
E|-33333333---|-XXXXXXXX--|-------------------|


I said hey hey yeah oh yeah, tell my love now. 
Hey hey yeah oh yeah, tell my love now. 
Deep Beneath the cover of another perfect wonder where it's so white as snow, 
privately divided by a world so undecided and there's nowhere to go. 

e|-33333333---|-55555555--|--77777777777777777|
B|-33333333---|-77777777--|--88888888888888888|
G|-44444444---|-77777777--|--99999999999999999|    X 4
D|-55555555---|-77777777--|--99999999999999999|
A|-55555555---|-55555555--|--XXXXXXXXXXXXXXXXX|
E|-33333333---|-XXXXXXXX--|-------------------|


Deep Beneath the cover of another perfect wonder where it's so white as snow...
Running through the field where all my tracks will be concealed and there's nowhere to go. 
I said hey oh yeah oh yeah..tell my love now 
Hey yeah yeah...oh yeah.






Hope you like my tab!
Thanks.
Rock oUt.
Walter Rocks Ultimate Guitar!
Show more
sponsored links
sponsored links