Everyday by Reset tabbed by Chintok ( Chintok13@hotmail.com)
this song ***ing rules,Best song from Reset
took me a while to tab it u know cuz i wasn t sure of some powerchords but here it is
for you
Intro with solo(X1):
e|-----------------------------------------------------------------------------|
B|---------------------------10-8----11-11-11-11-11-11-11-10-11-10-8-10-8------|
G|7-10-3-7-15-10-9-5-7777777------10--------------------------------------10-9-|
D|7-10-3-7-15-10-9-5-----------------------------------------------------------|
A|5-8--1-5-13-8--7-3-----------------------------------------------------------|
E|-----------------------------------------------------------------------------|

Try to find the powerchord rhytm ( the x577xx ) cuz i dont know it
e|-----------------------------------------------------------------------------|
B|--------10-8-----------------------------------------------------------------|
G|7777777------10----10-9-7----------------------------------------------------|
D|----------------10------7----------------------------------------------------|
A|------------------------5----------------------------------------------------|
E|-----------------------------------------------------------------------------|

Verse(X4): Try to figure out u r rhythm but improvise with some scratch and some Palm mutes
e|-----------------------------------------------------------------------------|
B|-----------------------------------------------------------------------------|
G|7-3-5------------------------------------------------------------------------|
D|7-3-5------------------------------------------------------------------------|
A|5-1-3------------------------------------------------------------------------|
E|-----------------------------------------------------------------------------|

Bridge(X1):
e|-----------------------------------------------------------------------------|
B|-----------------------------------------------------------------------------|
G|10-9-10-9-7------------------------------------------------------------------|
D|10-9-10-9-7-8-10-------------------------------------------------------------|
A|8--7-8--7-5-8-10-------------------------------------------------------------|
E|------------6-8--------------------------------------------------------------|

Chorus(X5):
e|-----------------------------------------------------------------------------|
B|-----------------------------------------------------------------------------|
G|7-10-5-----------------------------------------------------------------------|
D|7-10-5----3----3---3----5----5---5-------------------------------------------|
A|5-8--3-11---11---1---33---33---3---------------------------------------------|
E|-----------------------------------------------------------------------------|
PM       ''   ''   '   ''   ''   '

Verse X2
Verse X4

Solo(X2):
e|-----------------------------------------------------------------------------|
B|-----------------------------------------------------------------------------|
G|10-10-------------------7----------------9-10-12-----------------------------|
D|10-10-7-8-10-8-7--------7-888-7-8-7---10-9-10-12-8---------------------------|
A|8--8-------------10-8-7-5-----------8-10-7-8--10-8---------------------------|
E|---------------------------------------8---------6---------------------------|

Chorus X5

Ending(X1):
e|-----------------------------------------------------------------------------|
B|-----------------------------------------------------------------------------|
G|7-10-9-5-7-------------------------------------------------------------------|
D|7-10-9-5-7-------------------------------------------------------------------|
A|5-8--7-3-5-------------------------------------------------------------------|
E|-----------------------------------------------------------------------------|

Should be good
Show more