By : Dave Boucher
e|---------------------------------------------------------------------------|
B|---------------------------------------------------------------------------|
G|--5-5-5-5----8-8---5-5-5-5-----8-8---5-5-5-5----8-8------------------------|
D|--5-5-5-5-6--8-8---5-5-5-5--6--8-8---5-5-5-5-6--8-8---3-3-x-3--------------|
A|--3-3-3-3-6--6-6---3-3-3-3--6--6-6---3-3-3-3-6--6-6---3-3-x-3--------------|
E|----------4-----------------4----------------4--------1-1-x-1--------------|

e|---------------------------------------------------------------------------|
B|---------------------------------------------------------------------------|
G|-5---8---------------------------------------------------------------------|
D|-5---8---6---8-------------------------------------------------------------|
A|-3---6---6---8-------------------------------------------------------------|
E|---------4---6-------------------------------------------------------------|

go away i don't.....
e|---------------------------------------------------------------------------|
B|---------------------------------------------------------------------------|
G|--5----------3-------------------------------------------------------------|
D|--5--6----3--3-------------------------------------------------------------|
A|--3--6----3--1-------------------------------------------------------------|
E|-----4----1----------------------------------------------------------------|
pick slice
(solo)

e|-----------------------------------------------------|
B|-----------------------------------------------------|
G|-----------------------------------------------------|
D|------5---5-5------8---8-8---------------------------|
A|--3-3---3------6-6---6---------6---6-6------8---8-8--|
E|---------------------------4-4---4------6-6---6------|
  pm.... ... . ...... ... . ..... ... . ...... ... . ..


e|------------------------------------------------------|
B|-------------------------------------------------11---|
G|-------------------------------8---8-8------10------8-|
D|------5---5-5-----8---8-8--6-6---6------8-8----8------|
A|--3-3---3-----6-6---6---------------------------------|
E|------------------------------------------------------|
  pm.... ... . ..... ... . ...... ... . ......  ...   .
Show more