Song:My dream and I
Artist:Reset
Tabbed by:Dr?

.=palm-mute
x=mute
/=slide up
=slide down

Intro
(all palm-muted)

e|--------------------------------------------------------------
B|--------------------------------------------------------------
G|--------------------------------------------------------------
D|--------------7-7-7-7-7-7-7-7-4-4-4-4-4-4-4-4-5-5-5-5-5-5-5-5-
A|5-5-5-5-5-5-5-5-5-5-5-5-5-5-5-2-2-2-2-2-2-2-2-3-3-3-3-3-3-3-3-
E|3-3-3-3-3-3-3-------------------------------------------------
  
e|------------------------------------------------|
B|------------------------------------------------|
G|------------------------------------------------|
D|----------------7-7-7-7-7-7-7-7-5-5-5-5-5-5-5-5-|
A|5-5-5-5-5-5-5-5-5-5-5-5-5-5-5-5-3-3-3-3-3-3-3-3-|
E|3-3-3-3-3-3-3-3---------------------------------|

Verse

e|----------------------------------------------------------------
B|----------------------------------------------------------------
G|----------------------------------------------------------------
D|----------------7-7-7-7-7-7-7-7-9-9-9-9-9-9-9-9-5-5-5-5-5-5-5-5-
A|5-5-5-5-5-5-5-5-5-5-5-5-5-5-5-5-7-7-7-7-7-7-7-7-3-3-3-3-3-3-3-3-
E|3-3-3-3-3-3-3-3-------------------------------------------------
    . . . .         . . . .         . . . .         . . . .
                                 (x2)

e|----------------------------------------------------------------
B|----------------------------------------------------------------
G|----------------------------------------------------------------
D|----------------7-7-7-7-7-7-7-7-4-4-4-4-4-4-4-4-5-5-5-5-5-5-5-5-
A|5-5-5-5-5-5-5-5-5-5-5-5-5-5-5-5-2-2-2-2-2-2-2-2-3-3-3-3-3-3-3-3-
E|3-3-3-3-3-3-3-3-------------------------------------------------
    . . . .         . . . .         . . . .         . . . .

e|----------------------------------------------------------------|
B|----------------------------------------------------------------|
G|----------------------------------------------------------------|
D|----------------7-7-7-7-7-7-7-7-5-5-5-5-5-5-5-5-5-5-5-5-5-5-5-5-|
A|5-5-5-5-5-5-5-5-5-5-5-5-5-5-5-5-3-3-3-3-3-3-3-3-3-3-3-3-3-3-3-3-|
E|3-3-3-3-3-3-3-3-------------------------------------------------|
    . . . .         . . . .         . . . .         . . . .
         
Chorus
e|----------------------------------------------------------------
B|----------------------------------------------------------------
G|----------------------------------------------------------------
D|9-9-9-9-9-9-9-9-5-5-5-5-5-5-5-5---------------------------------
A|7-7-7-7-7-7-7-7-3-3-3-3-3-3-3-3-5-5-5-5-5-5-5-5-4-4-4-4-4-4-4-4-
E|--------------------------------3-3-3-3-3-3-3-3-2-2-2-2-2-2-2-2-

e|----------------------------------------------|
B|----------------------------------------------|
G|----------------------------------------------|
D|----------------5-5-5-5-5-5-5-5---------------|
A|2-2-2-2-2-2-2-2-3-3-3-3-3-3-3-3-5--5--5--5xx5-|
E|0-0-0-0-0-0-0-0-----------------3--3--3--3xx3-|

Verse
e|--------------------------------------------------------
B|--------------------------------------------------------
G|--------------------------------------------------------
D|--------------7-7-7-7-7-7-7-9-9-9-9-9-9-9-5-5-5-5-5-5-5-
A|5-5-5-5-5-5-5-5-5-5-5-5-5-5-7-7-7-7-7-7-7-3-3-3-3-3-3-3-
E|3-3-3-3-3-3-3-------------------------------------------
  . .   . . .   . .   . . .   . .   . . .   . .   . . .
                                 (x2)

e|--------------------------------------------------------
B|--------------------------------------------------------
G|--------------------------------------------------------
D|--------------7-7-7-7-7-7-7-4-4-4-4-4-4-4-5-5-5-5-5-5-5-
A|5-5-5-5-5-5-5-5-5-5-5-5-5-5-2-2-2-2-2-2-2-3-3-3-3-3-3-3-
E|3-3-3-3-3-3-3-------------------------------------------
  . .   . . .   . .   . . .   . .   . . .   . .   . . .

e|------------------------------------------------------------------
B|------------------------------------------------------------------
G|------------------------------------------------------------------
D|------------------------------------------------------------------
A|5-5-5-5-5-5-5-4-4-4-4-4-4-4-2-2-2-2-2-2-2-2-2-2-2-2-2-2-2-2-2-2-2-
E|3-3-3-3-3-3-3-2-2-2-2-2-2-2-0-0-0-0-0-0-0-0-0-0-0-0-0-0-0-0-0-0-0-
  . .   . . .   . .   . . .   . .   . . .   . . .   . . .   . . . 

e|----------------------------|
B|----------------------------|
G|----------------------------|
D|----------------------------|
A|5-5-5-5-5-5-5-4-4-4-4-4-4-4-|
E|3-3-3-3-3-3-3-2-2-2-2-2-2-2-|
  . .   . . .   . .   . . . 

Solo
e|---------------------------------------
B|-5-8--5--------------------------------
G|5-5----5--5-7-5-4-4--4-4-4-------------
D|------------------5-5-5-5--4--0--7-7-7-
A|----------------------------------5-5--
E|---------------------------------------
                        . .         . .

Solo con't
e|-------------------------------------------------------|
B|-------------------------------------------------------|
G|--------------------------5-5-4--4-4-4-----------------|
D|2-2-2-2-4-4-4-5-4-2-0------5--5-5-5-5--4--0--7-7-7-7-7-|
A|----------------------3--3-------------------5-5-5-5-5-|
E|-------------------------------------------------------|
                                    . .          . . .

Pre-chorus
e|----------------------------------------------------------------
B|----------------------------------------------------------------
G|----------------------------------------------------------------
D|----------------------------------------------------------------
A|----------------5-5-5-5-5-5-5-5/7-7-7-7-7-7-7-73-3-3-3-3-3-3-3-
E|3-3-3-3-3-3-3-3-------------------------------------------------
  . . . . . . . . . . . . . . . . . . . . . . . . . . . . . . . . 
                                   (x2)
Intro(not palm-muted)

Chorus

Chorus con't
e|--------------|
B|--------------|
G|--------------|
D|7-7-7-7-7-7-7-|
A|5-5-5-5-5-5-5-|
E|--------------|
    . .   . .  

Chorus(let ring last note)
Show more