Band:Reset
Song:Pollution
Album:No limits
Trancribed by:Michael Goulet 
E-mail:goulet_michael@hotmail.com
Tuned:EADGBE

Hey!!!This tabs is perfect and so easy.ENJOY!!

.:pm

Intro
|----------------------------------------------------------------
|----------------------------------------------------------------
|--4-4444-8-4-4444-8-4-4444-8--------4-4444----------------------
|--4-4444-8-4-4444-8-4-4444-8-6-6666-4-4444-4-444444-------------
|--2-2222-6-2-2222-6-2-2222-6-6-6666-2-2222-4-444444-------------
|-----------------------------4-4444--------2-222222-------------
     ....     ....     ....     ....   ....   ......

Verse
|----------------------------------------------------------------
|----------------------------------------------------------------
|--4-4444-8-4-4444-8-4-4444-8--------4-4444----------------------
|--4-4444-8-4-4444-8-4-4444-8-6-6666-4-4444-4-444444--2-222-2--4-
|--2-2222-6-2-2222-6-2-2222-6-6-6666-2-2222-4-444444--2-222-2--4-
|-----------------------------4-4444--------2-222222--0-000-0--2-
     ....     ....     ....     ....   ....   ......    ...

Chorus
|---------------------------------|------------------------------
|---------------------------------|------------------------------
|--444444-------------------------|--44444-----------------------
|--444444--444444--555555--777777-|--44444--44444--55555--22222--
|--222222--444444--555555--777777-|--22222--44444--55555--22222--
|----------222222--333333--555555-|---------22222--33333--00000--

Verse
|----------------------------------------------------------------
|----------------------------------------------------------------
|--4-4444-8-4-4444-8-4-4444-8--------4-4444----------------------
|--4-4444-8-4-4444-8-4-4444-8-6-6666-4-4444-4-444444-------------
|--2-2222-6-2-2222-6-2-2222-6-6-6666-2-2222-4-444444-------------
|-----------------------------4-4444--------2-222222-------------
     ....     ....     ....     ....   ....   ......

Verse 2
|----------------------------------------------------------------
|----------------------------------------------------------------
|--4-4444-8-4-4444-8-4-4444-8--------4-4444----------------------
|--4-4444-8-4-4444-8-4-4444-8-6-6666-4-4444-4-444444--2-222-2--4-
|--2-2222-6-2-2222-6-2-2222-6-6-6666-2-2222-4-444444--2-222-2--4-
|-----------------------------4-4444--------2-222222--0-000-0--2-
     ....     ....     ....     ....   ....   ......    ...

Interlude x2                  Fast picking and hard palm mute
|--------------------------|-------------------------------------
|--------------------------|-------------------------------------
|--444444----------999999--|--99999999999999---------------------
|--444444--444444--999999--|--99999999999999---------------------
|--222222--444444--777777--|--77777777777777---------------------
|----------222222----------|-------------------------------------

Bridge
|----------------------------------------------------------------
|----------------------------------------------------------------
|--444444--------------------------444444------------------------
|--444444--444444--222222--333333--444444------------------------
|--222222--444444--222222--333333--222222------------------------
|----------222222--000000--111111--------------------------------

Chorus x2
|---------------------------------|------------------------------
|---------------------------------|------------------------------
|--444444-------------------------|--44444-----------------------
|--444444--444444--555555--777777-|--44444--44444--55555--22222--
|--222222--444444--555555--777777-|--22222--44444--55555--22222--
|----------222222--333333--555555-|---------22222--33333--00000--

End on
|----------------------------------------------------------------
|----------------------------------------------------------------
|-------------------------77-7-77-77-77-7-77--99-9-99-99-99-9-99-
|--99-9-99-99-99-9-99-99-----------------------------------------
|----------------------------------------------------------------
|----------------------------------------------------------------
   ..   ..    ..   ..     ..   ..    ..   ..  ..   ..    ..   ..
Show more