Reset - Why    by: Dave Boucher .....do not follow the time

Intro 2x:		/=change chord	=slide	'= Palm mute
e|------------------------------------------------------------------------------|
B|------------------------------------------------------------------------------|
G|---------------------------77777777777----------------------------------------|
D|77777777777-6-4444444444-2-77777777777-7-222222222-4-6-7----------------------|
A|77777777777-6-4444444444-2-55555555555-7-222222222-4-6-7-----7-5-4------------|
E|55555555555-4-2222222222-0-------------5-000000000-2-4-5-...-------7-5-4-5-7--|
PM '''''' ''     '''''' ''     ''''''' ''     '''''''
  Since you were born you watched/ T./V. Cartoons with violence/ and/ greed. In
  your world, all that was /o./k....

Verse1 2x:
e|------------------------------------------------------------------------------|
B|------------------------------------------------------------------------------|
G|---------66666666----------7777-11-9-7---------------------------------------|
D|77777777-66666666-44444444-7777-11-9-7---------------------------------------|
A|77777777-44444444-44444444-5555-9--7-5---------------------------------------|
E|55555555----------22222222----------------------------------------------------|

Play with palm mute
  An attitude, a fancy car and your/ buddies got your back./ Your parents house
  compared to yours, looks/ something like a shack./ In your thirty seven guns/
  the bullets are painted red...

Chorus 2x:
e|------------------------------------------------------------------------------|
B|------------------------------------------------------------------------------|
G|-------------------------------777-777-777------------------------------------|
D|77-777-777-666-444-444-444-222-777-777-777-777-222-222-222-4-6----------------|
A|77-777-777-666-444-444-444-222-555-555-555-777-222-222-222-4-6----------------|
E|55-555-555-444-222-222-222-000-------------555-000-000-000-2-4----------------|
  But why?...

Verse2 2x =Intro

Last friday night...

Bridge-part1 1x:
e|------------------------------------------------------------------------------|
B|------------------------------------------------------------------------------|
G|77777777-------------------44444444-------------------------------------------|
D|77777777-44444444-77777777-44444444-------------------------------------------|
A|55555555-44444444-77777777-22222222-------------------------------------------|
E|---------22222222-55555555----------------------------------------------------|
  In a world were no one cares...

Bridge-part2 1x:
e|------------------------------------------------------------------------------|
B|------------------------------------------------------------------------------|
G|77777777----------------------------------------------------------------------|
D|77777777-44444444-2222222222222222--------------------------------------------|
A|55555555-44444444-2222222222222222--------------------------------------------|
E|---------22222222-0000000000000000--------------------------------------------|
  I had a dream that i could once walk in the streets...

Chorus 2x with solo

From me.....

Solo:
e|------------------------------------------------------------------------------|
B|------------------------------------------------------------------------------|
G|--------7-----------4-------------7-------------------------------------------|
D|7-6-4-2---4-2-2-4-6---7-6-7-6-4-2---4-2-7-6-4---------------------------------|
A|----------------------------------------------7-5-4---------------------------|
E|----------------------------------------------------7-5-----------------------|

Chorus 2x

Why?......

Ending:
e|------------------------------------------------------------------------------|
B|------------------------------------------------------------------------------|
G|----99999------99999------99999-----------------------------------------------|
D|777-99999-7777-99999-7777-99999-----------------7-----------------------------|
A|777-77777-7777-77777-7777-77777-7-5-4-----------7-----------------------------|
E|555-------5555-------5555-------------7-5-4-5-7-5-----------------------------|
PM ''  ''''  '''  ''''  '''  '''' ' ' ' ' ' ' ' '
				  -Half palm mute here-
Show more