• Song:

    Caliente

  • Artist:

    Resorte

  • Album:

    Crazy Pack Resorte

Afinaci?n: C, G, C, F, A, D
Tablatura hecha por Arturo D?az

S?mbolos:

* Arm?nico
x Silenciado (Palm muted)
/ Slides

INTRO (8x)

D--------------------------
A--------------------------
F--------------------------
C-3-2-1-0--3-2-1-0--x-x-x--
G-3-2-1-0--3-2-1-0--x-x-x--
C-3-2-1-0--3-2-1-0--x-x-x--

PUENTE 1 (1x)

D---------------
A---------------
F---------------
C--5*-------7*--
G---------------
C---------------

VERSO 1 (8x)

"Estoy caliente, sin calma y poco prudente
 Siente mi mente coraje y mi fe latente
 Miro de frente algo insolente
 Soberbio (soberbio) Sonriente (sonriente)

 Conf?o en la gente que va sin garant?a
 Se aleja de las dudas pues est?n siendo tibias
 No se cobija bajo sombras no acostumbrado a las orillas
 Siembre semillas, s?lo semillas."
 

<<<<<<
Nota: La Quinta vez entra otra guitarra haciendo esto:

D-------------------
A-------------------
F-------------------
C--0-12-0-12/1312--
G-------------------
C-------------------
>>>>>>


D--------------------------------------
A--------------------------------------
F--------------------------------------
C------------------------------6-6-----
G------5-5-5-3-3-6-6-6-6-3-3-3---------
C--0-0---------------------------------

CORO (8x)

"No va a llegar con s?lo estar viendo girar
 Caliente, no soy demente" (4x)

La Quinta vez cambian de distorsi?n.


D------------------------
A------------------------
F------------------------
C-12-3-0-12-5-0-6-5-3-0--
G-12-3-0-12-5-0-6-5-3-0--
C-12-3-0-12-5-0-6-5-3-0--

PUENTE 2 (1x)

D--------------------
A--------------------
F--------------------
C-3--3--3--3--6-5-3--
G-3--3--3--3--6-5-3--
C-3--3--3--3--6-5-3--

PUENTE 3 (1x)

D---------------
A---------------
F---------------
C--3*-----------
G---------------
C---------------

INTRO (6x)

PUENTE 4 (1x)

D----------------
A----------------
F----------------
C--5*-----7*-----
G------------7*--
C----------------

VERSO 1 (8x)

"Como un resorte reboto para arriba
 siempre mantengo la fe y la ideolog?a
 sigo caliente cambio de mente
 Comprendo no mucho, aprendiendo estoy

 Acaso eres de los que mandan
 de los que siempre convencidos andan
 apuesta en cara no se rajan cierto
 lo que no haga ahora no lo har? ma?ana
 Ja!, ni muerto, Ja!, ni muerto
 Siente como va fluyendo"
 
 
 

CORO (8x)

"No va a llegar con s?lo estar viendo girar
 Caliente, no soy demente" (4x)


PUENTE 5 (1x)

D------------------------------------------
A------------------------------------------
F------------------------------------------
C-3-5-3-5-3-5-3-5-5-6-5-6-5-6-6-5-6-5-6-5--
G-3-5-3-5-3-5-3-5-5-6-5-6-5-6-6-5-6-5-6-5--
C-3-5-3-5-3-5-3-5-5-6-5-6-5-6-6-5-6-5-6-5--


PUENTE 6 (1x)

D---------
A---------
F---------
C--5*--0--
G---------
C---------

INTRO (8x) 
Nota: La Cuarta vez no haces los palm muted

Acabas con

D------
A------
F------
C--5*--
G------
C------
Show more