• Song:

    Understanding In A Car Crash

  • Artist:

    Return To Sender

Return To Sender
Uunderstanding in a Car Crash
Thursday Remake/Cover
Tuning: Drop D
*-ring
this song is pretty hard, really hard on the part they added. but still a good song better than thursdays

Intro/Chours
G-----------------------------------------------------
D-----------------------------------------------------
A----------------------------3333-----0h3---0h3h5-h5-- x3
D--5h7-7777-5h7p5h7-7777/3333----0000----0h3-----0----

Verse
G----|----5h7p5---7*----5*-|-----------------7--7*---5--5*-----5h7p5/9p7h9*-
D-3*-|-0-3-----7-5--33-3---|-0-3/7h9p7h9/55-5-55--/33-33--5h7p5-------------
A----| play this 2 times   |------------------------------------------------
D----|---------------------|------------------------------------------------

Chours
G-----------------------------------------------------
D-----------------------------------------------------
A----------------------------3333-----0h3---0h3h5-h5-- x3
D--5h7-7777-5h7p5h7-7777/3333----0000----0h3-----0----

Verse
G-------------------------------------------------------7h9*-
D--------------------------------------------------9p7h9-----
A-----8877-0000-7h8p7-------------99998888--------9----------
D-7777---------------00000000-7777--------00000000-----------

The Part they added (hardest part)
G--------------------------9-7-8--------------------------------------12-12-12-------------------
D------------------7777-888-----999---777---------------------10-10-10--------888----------------
A-----9999-7777-999----------------888---7h9p8/55---------9999-------------------999-888-777-----
D-0000-------------------------------------------0000-7777----------------------------------5555-

G---------------------99999-777777777-|-11--9999-|----------------------
D----------------77777------000000000-|-0--------|----------------------
A-----------99999---------------------|-12--8888-|----------------------
D--7777-8888--------------------------|----------|-00000000000000000000-

G--------------------------------------
D--------------------------------------
A--------------------------------------
D-00-000-00~-000-00~-000-00~--000~-00~-
Show more